ISO-10303-21;
HEADER;
/* Generated by software containing ST-Developer
 * from STEP Tools, Inc. (www.steptools.com) 
 */
/* OPTION: using custom schema-name function */

FILE_DESCRIPTION(
/* description */ (''),
/* implementation_level */ '2;1');

FILE_NAME(
/* name */ 'model1.stp',
/* time_stamp */ '2023-11-02T16:44:09+03:00',
/* author */ (''),
/* organization */ (''),
/* preprocessor_version */ 'ST-DEVELOPER v19.4',
/* originating_system */ 'SIEMENS PLM Software NX2306.3001',
/* authorisation */ '');

FILE_SCHEMA (('AUTOMOTIVE_DESIGN { 1 0 10303 214 3 1 1 1 }'));
ENDSEC;

DATA;
#10=PROPERTY_DEFINITION_REPRESENTATION(#14,#12);
#11=PROPERTY_DEFINITION_REPRESENTATION(#15,#13);
#12=REPRESENTATION('',(#16),#492);
#13=REPRESENTATION('',(#17),#492);
#14=PROPERTY_DEFINITION('pmi validation property','',#21);
#15=PROPERTY_DEFINITION('pmi validation property','',#21);
#16=VALUE_REPRESENTATION_ITEM('number of annotations',COUNT_MEASURE(0.));
#17=VALUE_REPRESENTATION_ITEM('number of views',COUNT_MEASURE(0.));
#18=SHAPE_REPRESENTATION_RELATIONSHIP('None',
'relationship between model1_objects-None and model1_objects-None',#30,
#19);
#19=ADVANCED_BREP_SHAPE_REPRESENTATION('model1_objects-None',(#133,#134),
#492);
#20=SHAPE_DEFINITION_REPRESENTATION(#21,#30);
#21=PRODUCT_DEFINITION_SHAPE('','',#22);
#22=PRODUCT_DEFINITION(' ','',#24,#23);
#23=PRODUCT_DEFINITION_CONTEXT('part definition',#29,'design');
#24=PRODUCT_DEFINITION_FORMATION_WITH_SPECIFIED_SOURCE(' ',' ',#26,
 .NOT_KNOWN.);
#25=PRODUCT_RELATED_PRODUCT_CATEGORY('part','',(#26));
#26=PRODUCT('model1_objects','model1_objects',' ',(#27));
#27=PRODUCT_CONTEXT(' ',#29,'mechanical');
#28=APPLICATION_PROTOCOL_DEFINITION('international standard',
'automotive_design',2010,#29);
#29=APPLICATION_CONTEXT(
'core data for automotive mechanical design processes');
#30=SHAPE_REPRESENTATION('model1_objects-None',(#251),#492);
#31=OVER_RIDING_STYLED_ITEM('',(#62),#139,#59);
#32=OVER_RIDING_STYLED_ITEM('',(#63),#140,#59);
#33=OVER_RIDING_STYLED_ITEM('',(#64),#141,#59);
#34=OVER_RIDING_STYLED_ITEM('',(#65),#142,#59);
#35=OVER_RIDING_STYLED_ITEM('',(#66),#143,#59);
#36=OVER_RIDING_STYLED_ITEM('',(#67),#144,#59);
#37=OVER_RIDING_STYLED_ITEM('',(#68),#145,#59);
#38=OVER_RIDING_STYLED_ITEM('',(#69),#146,#59);
#39=OVER_RIDING_STYLED_ITEM('',(#70),#147,#59);
#40=OVER_RIDING_STYLED_ITEM('',(#71),#148,#59);
#41=COLOUR_RGB('Medium Steel',0.611764705882353,0.658823529411765,0.670588235294118);
#42=COLOUR_RGB('silver gray',0.6,0.6,0.6);
#43=CONICAL_SURFACE('',#271,16.238603859458,74.9999999999964);
#44=VERTEX_LOOP('',#228);
#45=SURFACE_OF_REVOLUTION('',#47,#46);
#46=AXIS1_PLACEMENT('',#489,#312);
#47=B_SPLINE_CURVE_WITH_KNOTS('',3,(#423,#424,#425,#426,#427,#428,#429,
#430,#431,#432,#433,#434,#435,#436,#437,#438,#439,#440,#441,#442,#443,#444,
#445,#446,#447,#448,#449,#450,#451,#452,#453,#454,#455,#456,#457,#458,#459,
#460,#461,#462,#463,#464,#465,#466,#467,#468,#469,#470,#471,#472,#473,#474,
#475,#476,#477,#478,#479,#480,#481,#482,#483,#484,#485,#486,#487,#488),
 .UNSPECIFIED.,.T.,.F.,(2,2,2,2,2,2,2,2,2,2,2,2,2,2,2,2,2,2,2,2,2,2,2,2,
2,2,2,2,2,2,2,2,2,2,2),(-0.03125,0.,0.03125,0.0625,0.09375,0.125,0.15625,
0.1875,0.21875,0.25,0.28125,0.3125,0.34375,0.375,0.40625,0.4375,0.46875,
0.5,0.53125,0.5625,0.59375,0.625,0.65625,0.6875,0.71875,0.75,0.78125,0.8125,
0.84375,0.875,0.90625,0.9375,0.96875,1.,1.03125),.UNSPECIFIED.);
#48=TOROIDAL_SURFACE('',#259,19.5,1.5);
#49=TOROIDAL_SURFACE('',#261,16.,5.);
#50=TOROIDAL_SURFACE('',#263,70.2,50.);
#51=TOROIDAL_SURFACE('',#265,18.5,5.);
#52=TOROIDAL_SURFACE('',#269,24.5,1.);
#53=PLANE('',#258);
#54=FACE_OUTER_BOUND('',#179,.T.);
#55=CYLINDRICAL_SURFACE('',#256,21.);
#56=CYLINDRICAL_SURFACE('',#267,23.5);
#57=PRESENTATION_LAYER_ASSIGNMENT('1','Layer 1',(#133,#134));
#58=STYLED_ITEM('',(#60),#133);
#59=STYLED_ITEM('',(#61),#134);
#60=PRESENTATION_STYLE_ASSIGNMENT((#72));
#61=PRESENTATION_STYLE_ASSIGNMENT((#73));
#62=PRESENTATION_STYLE_ASSIGNMENT((#74));
#63=PRESENTATION_STYLE_ASSIGNMENT((#75));
#64=PRESENTATION_STYLE_ASSIGNMENT((#76));
#65=PRESENTATION_STYLE_ASSIGNMENT((#77));
#66=PRESENTATION_STYLE_ASSIGNMENT((#78));
#67=PRESENTATION_STYLE_ASSIGNMENT((#79));
#68=PRESENTATION_STYLE_ASSIGNMENT((#80));
#69=PRESENTATION_STYLE_ASSIGNMENT((#81));
#70=PRESENTATION_STYLE_ASSIGNMENT((#82));
#71=PRESENTATION_STYLE_ASSIGNMENT((#83));
#72=SURFACE_STYLE_USAGE(.BOTH.,#84);
#73=SURFACE_STYLE_USAGE(.BOTH.,#85);
#74=SURFACE_STYLE_USAGE(.BOTH.,#86);
#75=SURFACE_STYLE_USAGE(.BOTH.,#87);
#76=SURFACE_STYLE_USAGE(.BOTH.,#88);
#77=SURFACE_STYLE_USAGE(.BOTH.,#89);
#78=SURFACE_STYLE_USAGE(.BOTH.,#90);
#79=SURFACE_STYLE_USAGE(.BOTH.,#91);
#80=SURFACE_STYLE_USAGE(.BOTH.,#92);
#81=SURFACE_STYLE_USAGE(.BOTH.,#93);
#82=SURFACE_STYLE_USAGE(.BOTH.,#94);
#83=SURFACE_STYLE_USAGE(.BOTH.,#95);
#84=SURFACE_SIDE_STYLE('',(#96));
#85=SURFACE_SIDE_STYLE('',(#97));
#86=SURFACE_SIDE_STYLE('',(#98));
#87=SURFACE_SIDE_STYLE('',(#99));
#88=SURFACE_SIDE_STYLE('',(#100));
#89=SURFACE_SIDE_STYLE('',(#101));
#90=SURFACE_SIDE_STYLE('',(#102));
#91=SURFACE_SIDE_STYLE('',(#103));
#92=SURFACE_SIDE_STYLE('',(#104));
#93=SURFACE_SIDE_STYLE('',(#105));
#94=SURFACE_SIDE_STYLE('',(#106));
#95=SURFACE_SIDE_STYLE('',(#107));
#96=SURFACE_STYLE_FILL_AREA(#108);
#97=SURFACE_STYLE_FILL_AREA(#109);
#98=SURFACE_STYLE_FILL_AREA(#110);
#99=SURFACE_STYLE_FILL_AREA(#111);
#100=SURFACE_STYLE_FILL_AREA(#112);
#101=SURFACE_STYLE_FILL_AREA(#113);
#102=SURFACE_STYLE_FILL_AREA(#114);
#103=SURFACE_STYLE_FILL_AREA(#115);
#104=SURFACE_STYLE_FILL_AREA(#116);
#105=SURFACE_STYLE_FILL_AREA(#117);
#106=SURFACE_STYLE_FILL_AREA(#118);
#107=SURFACE_STYLE_FILL_AREA(#119);
#108=FILL_AREA_STYLE('',(#120));
#109=FILL_AREA_STYLE('',(#121));
#110=FILL_AREA_STYLE('',(#122));
#111=FILL_AREA_STYLE('',(#123));
#112=FILL_AREA_STYLE('',(#124));
#113=FILL_AREA_STYLE('',(#125));
#114=FILL_AREA_STYLE('',(#126));
#115=FILL_AREA_STYLE('',(#127));
#116=FILL_AREA_STYLE('',(#128));
#117=FILL_AREA_STYLE('',(#129));
#118=FILL_AREA_STYLE('',(#130));
#119=FILL_AREA_STYLE('',(#131));
#120=FILL_AREA_STYLE_COLOUR('',#132);
#121=FILL_AREA_STYLE_COLOUR('',#41);
#122=FILL_AREA_STYLE_COLOUR('',#42);
#123=FILL_AREA_STYLE_COLOUR('',#42);
#124=FILL_AREA_STYLE_COLOUR('',#42);
#125=FILL_AREA_STYLE_COLOUR('',#42);
#126=FILL_AREA_STYLE_COLOUR('',#42);
#127=FILL_AREA_STYLE_COLOUR('',#42);
#128=FILL_AREA_STYLE_COLOUR('',#42);
#129=FILL_AREA_STYLE_COLOUR('',#42);
#130=FILL_AREA_STYLE_COLOUR('',#42);
#131=FILL_AREA_STYLE_COLOUR('',#42);
#132=DRAUGHTING_PRE_DEFINED_COLOUR('yellow');
#133=MANIFOLD_SOLID_BREP('',#135);
#134=MANIFOLD_SOLID_BREP('',#136);
#135=CLOSED_SHELL('',(#137,#138));
#136=CLOSED_SHELL('',(#139,#140,#141,#142,#143,#144,#145,#146,#147,#148));
#137=ADVANCED_FACE('',(#151,#152),#149,.F.);
#138=ADVANCED_FACE('',(#153,#154),#150,.F.);
#139=ADVANCED_FACE('',(#155,#156),#55,.T.);
#140=ADVANCED_FACE('',(#54),#53,.F.);
#141=ADVANCED_FACE('',(#157,#158),#48,.T.);
#142=ADVANCED_FACE('',(#159,#160),#49,.T.);
#143=ADVANCED_FACE('',(#161,#162),#50,.F.);
#144=ADVANCED_FACE('',(#163,#164),#51,.T.);
#145=ADVANCED_FACE('',(#165,#166),#56,.T.);
#146=ADVANCED_FACE('',(#167,#168),#52,.F.);
#147=ADVANCED_FACE('',(#169,#170),#45,.T.);
#148=ADVANCED_FACE('',(#171,#172),#43,.F.);
#149=(
BOUNDED_SURFACE()
B_SPLINE_SURFACE(3,3,((#320,#321,#322,#323,#324,#325,#326),(#327,#328,#329,
#330,#331,#332,#333),(#334,#335,#336,#337,#338,#339,#340),(#341,#342,#343,
#344,#345,#346,#347),(#348,#349,#350,#351,#352,#353,#354),(#355,#356,#357,
#358,#359,#360,#361),(#362,#363,#364,#365,#366,#367,#368)),
 .UNSPECIFIED.,.T.,.F.,.F.)
B_SPLINE_SURFACE_WITH_KNOTS((1,3,3,3,1),(4,3,4),(-0.5,0.,0.5,1.,1.5),(0.,
0.5,1.),.UNSPECIFIED.)
GEOMETRIC_REPRESENTATION_ITEM()
RATIONAL_B_SPLINE_SURFACE(((1.,0.587595275646287,0.587595275646287,1.,0.587595275646287,
0.587595275646287,1.),(0.333333333333334,0.195865091882095,0.195865091882095,
0.333333333333334,0.195865091882095,0.195865091882095,0.333333333333334),
(0.333333333333334,0.195865091882095,0.195865091882095,0.333333333333334,
0.195865091882095,0.195865091882095,0.333333333333334),(1.,0.587595275646287,
0.587595275646287,1.,0.587595275646287,0.587595275646287,1.),(0.333333333333334,
0.195865091882095,0.195865091882095,0.333333333333334,0.195865091882095,
0.195865091882095,0.333333333333334),(0.333333333333334,0.195865091882095,
0.195865091882095,0.333333333333334,0.195865091882095,0.195865091882095,
0.333333333333334),(1.,0.587595275646287,0.587595275646287,1.,0.587595275646287,
0.587595275646287,1.)))
REPRESENTATION_ITEM('')
SURFACE()
);
#150=(
BOUNDED_SURFACE()
B_SPLINE_SURFACE(3,3,((#369,#370,#371,#372),(#373,#374,#375,#376),(#377,
#378,#379,#380),(#381,#382,#383,#384),(#385,#386,#387,#388),(#389,#390,
#391,#392),(#393,#394,#395,#396)),.UNSPECIFIED.,.T.,.F.,.F.)
B_SPLINE_SURFACE_WITH_KNOTS((1,3,3,3,1),(4,4),(-0.5,0.,0.5,1.,1.5),(0.,
1.),.UNSPECIFIED.)
GEOMETRIC_REPRESENTATION_ITEM()
RATIONAL_B_SPLINE_SURFACE(((1.,0.806052594073733,0.806052594073733,1.),
(0.333333333333334,0.268684198024577,0.268684198024577,0.333333333333334),
(0.333333333333334,0.268684198024577,0.268684198024577,0.333333333333334),
(1.,0.806052594073733,0.806052594073733,1.),(0.333333333333334,0.268684198024577,
0.268684198024577,0.333333333333334),(0.333333333333334,0.268684198024577,
0.268684198024577,0.333333333333334),(1.,0.806052594073733,0.806052594073733,
1.)))
REPRESENTATION_ITEM('')
SURFACE()
);
#151=FACE_BOUND('',#173,.T.);
#152=FACE_BOUND('',#174,.T.);
#153=FACE_BOUND('',#175,.T.);
#154=FACE_BOUND('',#176,.T.);
#155=FACE_BOUND('',#177,.T.);
#156=FACE_BOUND('',#178,.T.);
#157=FACE_BOUND('',#180,.T.);
#158=FACE_BOUND('',#181,.T.);
#159=FACE_BOUND('',#182,.T.);
#160=FACE_BOUND('',#183,.T.);
#161=FACE_BOUND('',#184,.T.);
#162=FACE_BOUND('',#185,.T.);
#163=FACE_BOUND('',#186,.T.);
#164=FACE_BOUND('',#187,.T.);
#165=FACE_BOUND('',#188,.T.);
#166=FACE_BOUND('',#189,.T.);
#167=FACE_BOUND('',#190,.T.);
#168=FACE_BOUND('',#191,.T.);
#169=FACE_BOUND('',#192,.T.);
#170=FACE_BOUND('',#193,.T.);
#171=FACE_BOUND('',#194,.T.);
#172=FACE_BOUND('',#44,.T.);
#173=EDGE_LOOP('',(#195));
#174=EDGE_LOOP('',(#196));
#175=EDGE_LOOP('',(#197));
#176=EDGE_LOOP('',(#198));
#177=EDGE_LOOP('',(#199));
#178=EDGE_LOOP('',(#200));
#179=EDGE_LOOP('',(#201));
#180=EDGE_LOOP('',(#202));
#181=EDGE_LOOP('',(#203));
#182=EDGE_LOOP('',(#204));
#183=EDGE_LOOP('',(#205));
#184=EDGE_LOOP('',(#206));
#185=EDGE_LOOP('',(#207));
#186=EDGE_LOOP('',(#208));
#187=EDGE_LOOP('',(#209));
#188=EDGE_LOOP('',(#210));
#189=EDGE_LOOP('',(#211));
#190=EDGE_LOOP('',(#212));
#191=EDGE_LOOP('',(#213));
#192=EDGE_LOOP('',(#214));
#193=EDGE_LOOP('',(#215));
#194=EDGE_LOOP('',(#216));
#195=ORIENTED_EDGE('',*,*,#229,.T.);
#196=ORIENTED_EDGE('',*,*,#230,.F.);
#197=ORIENTED_EDGE('',*,*,#230,.T.);
#198=ORIENTED_EDGE('',*,*,#229,.F.);
#199=ORIENTED_EDGE('',*,*,#231,.T.);
#200=ORIENTED_EDGE('',*,*,#232,.F.);
#201=ORIENTED_EDGE('',*,*,#233,.F.);
#202=ORIENTED_EDGE('',*,*,#231,.F.);
#203=ORIENTED_EDGE('',*,*,#233,.T.);
#204=ORIENTED_EDGE('',*,*,#234,.F.);
#205=ORIENTED_EDGE('',*,*,#232,.T.);
#206=ORIENTED_EDGE('',*,*,#235,.F.);
#207=ORIENTED_EDGE('',*,*,#234,.T.);
#208=ORIENTED_EDGE('',*,*,#236,.F.);
#209=ORIENTED_EDGE('',*,*,#235,.T.);
#210=ORIENTED_EDGE('',*,*,#237,.F.);
#211=ORIENTED_EDGE('',*,*,#236,.T.);
#212=ORIENTED_EDGE('',*,*,#238,.F.);
#213=ORIENTED_EDGE('',*,*,#237,.T.);
#214=ORIENTED_EDGE('',*,*,#239,.F.);
#215=ORIENTED_EDGE('',*,*,#238,.T.);
#216=ORIENTED_EDGE('',*,*,#239,.T.);
#217=VERTEX_POINT('',#317);
#218=VERTEX_POINT('',#319);
#219=VERTEX_POINT('',#398);
#220=VERTEX_POINT('',#400);
#221=VERTEX_POINT('',#403);
#222=VERTEX_POINT('',#407);
#223=VERTEX_POINT('',#410);
#224=VERTEX_POINT('',#413);
#225=VERTEX_POINT('',#416);
#226=VERTEX_POINT('',#419);
#227=VERTEX_POINT('',#422);
#228=VERTEX_POINT('',#490);
#229=EDGE_CURVE('',#217,#217,#240,.T.);
#230=EDGE_CURVE('',#218,#218,#241,.T.);
#231=EDGE_CURVE('',#219,#219,#242,.T.);
#232=EDGE_CURVE('',#220,#220,#243,.T.);
#233=EDGE_CURVE('',#221,#221,#244,.T.);
#234=EDGE_CURVE('',#222,#222,#245,.T.);
#235=EDGE_CURVE('',#223,#223,#246,.T.);
#236=EDGE_CURVE('',#224,#224,#247,.T.);
#237=EDGE_CURVE('',#225,#225,#248,.T.);
#238=EDGE_CURVE('',#226,#226,#249,.T.);
#239=EDGE_CURVE('',#227,#227,#250,.T.);
#240=CIRCLE('',#252,5.);
#241=CIRCLE('',#253,5.);
#242=CIRCLE('',#254,21.);
#243=CIRCLE('',#255,21.);
#244=CIRCLE('',#257,19.5);
#245=CIRCLE('',#260,20.9272727272728);
#246=CIRCLE('',#262,23.2);
#247=CIRCLE('',#264,23.5);
#248=CIRCLE('',#266,23.5);
#249=CIRCLE('',#268,23.5582386214414);
#250=CIRCLE('',#270,16.238603859458);
#251=AXIS2_PLACEMENT_3D('',#315,#272,#273);
#252=AXIS2_PLACEMENT_3D('',#316,#274,#275);
#253=AXIS2_PLACEMENT_3D('',#318,#276,#277);
#254=AXIS2_PLACEMENT_3D('',#397,#278,#279);
#255=AXIS2_PLACEMENT_3D('',#399,#280,#281);
#256=AXIS2_PLACEMENT_3D('',#401,#282,#283);
#257=AXIS2_PLACEMENT_3D('',#402,#284,#285);
#258=AXIS2_PLACEMENT_3D('',#404,#286,#287);
#259=AXIS2_PLACEMENT_3D('',#405,#288,#289);
#260=AXIS2_PLACEMENT_3D('',#406,#290,#291);
#261=AXIS2_PLACEMENT_3D('',#408,#292,#293);
#262=AXIS2_PLACEMENT_3D('',#409,#294,#295);
#263=AXIS2_PLACEMENT_3D('',#411,#296,#297);
#264=AXIS2_PLACEMENT_3D('',#412,#298,#299);
#265=AXIS2_PLACEMENT_3D('',#414,#300,#301);
#266=AXIS2_PLACEMENT_3D('',#415,#302,#303);
#267=AXIS2_PLACEMENT_3D('',#417,#304,#305);
#268=AXIS2_PLACEMENT_3D('',#418,#306,#307);
#269=AXIS2_PLACEMENT_3D('',#420,#308,#309);
#270=AXIS2_PLACEMENT_3D('',#421,#310,#311);
#271=AXIS2_PLACEMENT_3D('',#491,#313,#314);
#272=DIRECTION('',(0.,0.,1.));
#273=DIRECTION('',(1.,0.,0.));
#274=DIRECTION('',(0.,0.995692327061868,0.0927188752634665));
#275=DIRECTION('',(0.,-0.0927188752634665,0.995692327061868));
#276=DIRECTION('',(0.,-0.0871557427476583,0.996194698091746));
#277=DIRECTION('',(0.,-0.996194698091746,-0.0871557427476583));
#278=DIRECTION('',(-1.,0.,0.));
#279=DIRECTION('',(0.,0.,1.));
#280=DIRECTION('',(-1.,0.,0.));
#281=DIRECTION('',(0.,0.,1.));
#282=DIRECTION('',(-1.,0.,0.));
#283=DIRECTION('',(0.,0.,1.));
#284=DIRECTION('',(-1.,0.,0.));
#285=DIRECTION('',(0.,0.,1.));
#286=DIRECTION('',(-1.,0.,0.));
#287=DIRECTION('',(0.,0.,1.));
#288=DIRECTION('',(-1.,0.,0.));
#289=DIRECTION('',(0.,0.,1.));
#290=DIRECTION('',(-1.,0.,0.));
#291=DIRECTION('',(0.,0.,1.));
#292=DIRECTION('',(-1.,0.,0.));
#293=DIRECTION('',(0.,0.,1.));
#294=DIRECTION('',(-1.,0.,0.));
#295=DIRECTION('',(0.,0.,1.));
#296=DIRECTION('',(-1.,0.,0.));
#297=DIRECTION('',(0.,0.,1.));
#298=DIRECTION('',(-1.,0.,0.));
#299=DIRECTION('',(0.,0.,1.));
#300=DIRECTION('',(-1.,0.,0.));
#301=DIRECTION('',(0.,0.,1.));
#302=DIRECTION('',(-1.,0.,0.));
#303=DIRECTION('',(0.,0.,1.));
#304=DIRECTION('',(-1.,0.,0.));
#305=DIRECTION('',(0.,0.,1.));
#306=DIRECTION('',(-1.,0.,0.));
#307=DIRECTION('',(0.,0.,1.));
#308=DIRECTION('',(-1.,0.,0.));
#309=DIRECTION('',(0.,0.,1.));
#310=DIRECTION('',(-1.,0.,0.));
#311=DIRECTION('',(0.,0.,1.));
#312=DIRECTION('',(-1.,0.,0.));
#313=DIRECTION('',(-1.,0.,0.));
#314=DIRECTION('',(6.94206057310367E-19,0.,1.));
#315=CARTESIAN_POINT('',(0.,0.,0.));
#316=CARTESIAN_POINT('',(5.,0.323950685385488,20.0211483544402));
#317=CARTESIAN_POINT('',(5.,-0.139643690931844,24.9996099897495));
#318=CARTESIAN_POINT('',(5.,-20.0190265095413,0.435778713738291));
#319=CARTESIAN_POINT('',(5.,-25.,-4.33680868994202E-16));
#320=CARTESIAN_POINT('',(5.,-25.,-6.50521303491303E-16));
#321=CARTESIAN_POINT('',(5.,-25.,-26.2202308825837));
#322=CARTESIAN_POINT('',(5.,-0.761676986045515,-36.2204411307334));
#323=CARTESIAN_POINT('',(5.,17.726972277765,-17.6282288918471));
#324=CARTESIAN_POINT('',(5.,36.2156215415755,0.963983347039232));
#325=CARTESIAN_POINT('',(5.,26.0801781452993,25.1460695824507));
#326=CARTESIAN_POINT('',(5.,-0.139643690931841,24.9996099897495));
#327=CARTESIAN_POINT('',(15.,-25.,-6.50521303491303E-16));
#328=CARTESIAN_POINT('',(15.,-25.0000000000001,-26.2202308825837));
#329=CARTESIAN_POINT('',(15.,-0.761676986045516,-36.2204411307335));
#330=CARTESIAN_POINT('',(15.,17.726972277765,-17.6282288918471));
#331=CARTESIAN_POINT('',(15.,36.2156215415755,0.963983347039234));
#332=CARTESIAN_POINT('',(15.,26.0801781452993,25.1460695824507));
#333=CARTESIAN_POINT('',(15.,-0.139643690931841,24.9996099897495));
#334=CARTESIAN_POINT('',(15.,-15.0380530190826,0.871557427476583));
#335=CARTESIAN_POINT('',(15.,-15.9521504981172,-14.9004914599186));
#336=CARTESIAN_POINT('',(15.,-1.72089333574146,-21.7608427545601));
#337=CARTESIAN_POINT('',(15.,10.0486054062756,-11.2217726025391));
#338=CARTESIAN_POINT('',(15.,21.8181041482927,-0.682702450518096));
#339=CARTESIAN_POINT('',(15.,16.5644538165022,14.2167021851994));
#340=CARTESIAN_POINT('',(15.,0.78754506170282,15.0426867191308));
#341=CARTESIAN_POINT('',(5.,-15.0380530190826,0.871557427476583));
#342=CARTESIAN_POINT('',(5.,-15.9521504981172,-14.9004914599186));
#343=CARTESIAN_POINT('',(5.,-1.72089333574146,-21.76084275456));
#344=CARTESIAN_POINT('',(5.,10.0486054062756,-11.2217726025391));
#345=CARTESIAN_POINT('',(5.,21.8181041482926,-0.682702450518096));
#346=CARTESIAN_POINT('',(5.,16.5644538165022,14.2167021851994));
#347=CARTESIAN_POINT('',(5.,0.787545061702821,15.0426867191309));
#348=CARTESIAN_POINT('',(-4.99999999999999,-15.0380530190826,0.871557427476583));
#349=CARTESIAN_POINT('',(-5.00000000000001,-15.9521504981172,-14.9004914599186));
#350=CARTESIAN_POINT('',(-5.,-1.72089333574146,-21.7608427545601));
#351=CARTESIAN_POINT('',(-4.99999999999999,10.0486054062756,-11.2217726025391));
#352=CARTESIAN_POINT('',(-5.,21.8181041482927,-0.682702450518098));
#353=CARTESIAN_POINT('',(-5.,16.5644538165022,14.2167021851994));
#354=CARTESIAN_POINT('',(-4.99999999999999,0.787545061702822,15.0426867191308));
#355=CARTESIAN_POINT('',(-5.00000000000001,-25.,-6.50521303491303E-16));
#356=CARTESIAN_POINT('',(-5.00000000000001,-25.0000000000001,-26.2202308825837));
#357=CARTESIAN_POINT('',(-5.00000000000001,-0.761676986045516,-36.2204411307335));
#358=CARTESIAN_POINT('',(-4.99999999999999,17.726972277765,-17.6282288918471));
#359=CARTESIAN_POINT('',(-5.00000000000001,36.2156215415755,0.963983347039234));
#360=CARTESIAN_POINT('',(-5.,26.0801781452993,25.1460695824507));
#361=CARTESIAN_POINT('',(-4.99999999999999,-0.139643690931841,24.9996099897495));
#362=CARTESIAN_POINT('',(5.,-25.,-6.50521303491303E-16));
#363=CARTESIAN_POINT('',(5.,-25.,-26.2202308825837));
#364=CARTESIAN_POINT('',(5.,-0.761676986045515,-36.2204411307334));
#365=CARTESIAN_POINT('',(5.,17.726972277765,-17.6282288918471));
#366=CARTESIAN_POINT('',(5.,36.2156215415755,0.963983347039232));
#367=CARTESIAN_POINT('',(5.,26.0801781452993,25.1460695824507));
#368=CARTESIAN_POINT('',(5.,-0.139643690931841,24.9996099897495));
#369=CARTESIAN_POINT('',(5.,-0.139643690931845,24.9996099897495));
#370=CARTESIAN_POINT('',(5.,-14.71929933942,24.9181704421684));
#371=CARTESIAN_POINT('',(5.,-25.,14.5798831006426));
#372=CARTESIAN_POINT('',(5.,-25.,-3.25260651745651E-15));
#373=CARTESIAN_POINT('',(15.,-0.139643690931845,24.9996099897495));
#374=CARTESIAN_POINT('',(15.,-14.71929933942,24.9181704421684));
#375=CARTESIAN_POINT('',(15.,-25.,14.5798831006426));
#376=CARTESIAN_POINT('',(15.,-25.,-3.25260651745651E-15));
#377=CARTESIAN_POINT('',(15.,0.787545061702819,15.0426867191308));
#378=CARTESIAN_POINT('',(15.,-7.98527949367782,15.5019793165755));
#379=CARTESIAN_POINT('',(15.,-14.5297648027583,9.64167963065614));
#380=CARTESIAN_POINT('',(15.,-15.0380530190826,0.87155742747658));
#381=CARTESIAN_POINT('',(5.,0.78754506170282,15.0426867191309));
#382=CARTESIAN_POINT('',(5.,-7.98527949367782,15.5019793165755));
#383=CARTESIAN_POINT('',(5.,-14.5297648027583,9.64167963065612));
#384=CARTESIAN_POINT('',(5.,-15.0380530190826,0.871557427476581));
#385=CARTESIAN_POINT('',(-4.99999999999999,0.78754506170282,15.0426867191308));
#386=CARTESIAN_POINT('',(-5.,-7.98527949367782,15.5019793165755));
#387=CARTESIAN_POINT('',(-5.,-14.5297648027583,9.64167963065614));
#388=CARTESIAN_POINT('',(-4.99999999999999,-15.0380530190826,0.871557427476582));
#389=CARTESIAN_POINT('',(-5.00000000000001,-0.139643690931845,24.9996099897495));
#390=CARTESIAN_POINT('',(-5.00000000000001,-14.71929933942,24.9181704421684));
#391=CARTESIAN_POINT('',(-5.00000000000001,-25.,14.5798831006426));
#392=CARTESIAN_POINT('',(-5.00000000000001,-25.,-3.25260651745651E-15));
#393=CARTESIAN_POINT('',(5.,-0.139643690931845,24.9996099897495));
#394=CARTESIAN_POINT('',(5.,-14.71929933942,24.9181704421684));
#395=CARTESIAN_POINT('',(5.,-25.,14.5798831006426));
#396=CARTESIAN_POINT('',(5.,-25.,-3.25260651745651E-15));
#397=CARTESIAN_POINT('',(48.5,0.,0.));
#398=CARTESIAN_POINT('',(48.5,0.,21.));
#399=CARTESIAN_POINT('',(42.,0.,0.));
#400=CARTESIAN_POINT('',(42.,0.,21.));
#401=CARTESIAN_POINT('',(0.,0.,0.));
#402=CARTESIAN_POINT('',(50.,0.,0.));
#403=CARTESIAN_POINT('',(50.,0.,19.5));
#404=CARTESIAN_POINT('',(50.,12.,0.));
#405=CARTESIAN_POINT('',(48.5,0.,0.));
#406=CARTESIAN_POINT('',(41.1503038948693,0.,0.));
#407=CARTESIAN_POINT('',(41.1503038948693,0.,20.9272727272728));
#408=CARTESIAN_POINT('',(42.,0.,0.));
#409=CARTESIAN_POINT('',(15.5946207343297,0.,0.));
#410=CARTESIAN_POINT('',(15.5946207343297,0.,23.2));
#411=CARTESIAN_POINT('',(32.6533428435617,0.,0.));
#412=CARTESIAN_POINT('',(13.8887485234065,0.,0.));
#413=CARTESIAN_POINT('',(13.8887485234065,0.,23.5));
#414=CARTESIAN_POINT('',(13.8887485234065,0.,0.));
#415=CARTESIAN_POINT('',(7.65267709229909,0.,0.));
#416=CARTESIAN_POINT('',(7.65267709229909,0.,23.5));
#417=CARTESIAN_POINT('',(0.,0.,0.));
#418=CARTESIAN_POINT('',(7.31639520784201,0.,0.));
#419=CARTESIAN_POINT('',(7.31639520784201,0.,23.5582386214414));
#420=CARTESIAN_POINT('',(7.65267709229909,0.,0.));
#421=CARTESIAN_POINT('',(3.,0.,0.));
#422=CARTESIAN_POINT('',(3.,0.,16.238603859458));
#423=CARTESIAN_POINT('',(4.7187681570826,15.7440828967155,0.));
#424=CARTESIAN_POINT('',(5.2812318429174,15.7440828967155,0.));
#425=CARTESIAN_POINT('',(5.55958244260748,15.7714356404564,0.));
#426=CARTESIAN_POINT('',(6.11052296236128,15.8806647159376,0.));
#427=CARTESIAN_POINT('',(6.37777337168065,15.9616845423316,0.));
#428=CARTESIAN_POINT('',(6.89060261936998,16.1729612649194,0.));
#429=CARTESIAN_POINT('',(7.13938385514579,16.3049620050385,0.));
#430=CARTESIAN_POINT('',(7.60496601887866,16.6144943957445,0.));
#431=CARTESIAN_POINT('',(7.81980041261067,16.7900103902027,0.));
#432=CARTESIAN_POINT('',(8.21403348201089,17.1819900207704,0.));
#433=CARTESIAN_POINT('',(8.39444683558371,17.400741628977,0.));
#434=CARTESIAN_POINT('',(8.70409131506265,17.86245280874,0.));
#435=CARTESIAN_POINT('',(8.8353651580887,18.1068245932906,0.));
#436=CARTESIAN_POINT('',(9.04992468626205,18.6231121727803,0.));
#437=CARTESIAN_POINT('',(9.1315767380646,18.8926712303182,0.));
#438=CARTESIAN_POINT('',(9.23953633998674,19.4366413475389,0.));
#439=CARTESIAN_POINT('',(9.26695041857101,19.7149376945175,0.));
#440=CARTESIAN_POINT('',(9.26596089764688,20.2759885253982,0.));
#441=CARTESIAN_POINT('',(9.23784774954969,20.5522070576313,0.));
#442=CARTESIAN_POINT('',(9.12821498768964,21.0963157789236,0.));
#443=CARTESIAN_POINT('',(9.04524969082938,21.367058669121,0.));
#444=CARTESIAN_POINT('',(8.83015318280754,21.8809524590072,0.));
#445=CARTESIAN_POINT('',(8.69857434468965,22.1249821172474,0.));
#446=CARTESIAN_POINT('',(8.3874175641836,22.5872403217523,0.));
#447=CARTESIAN_POINT('',(8.20693857790576,22.8053192895495,0.));
#448=CARTESIAN_POINT('',(7.81300195594149,23.1962357063563,0.));
#449=CARTESIAN_POINT('',(7.59793547042537,23.3718416729808,0.));
#450=CARTESIAN_POINT('',(7.13046503533358,23.6820974113094,0.));
#451=CARTESIAN_POINT('',(6.88337394744945,23.8129026953058,0.));
#452=CARTESIAN_POINT('',(6.37053405812756,24.0238381223125,0.));
#453=CARTESIAN_POINT('',(6.1011195110481,24.1051545176758,0.));
#454=CARTESIAN_POINT('',(5.55238448347182,24.213234103609,0.));
#455=CARTESIAN_POINT('',(5.27626952809727,24.2399360710564,0.));
#456=CARTESIAN_POINT('',(4.72061308338638,24.2397336431915,0.));
#457=CARTESIAN_POINT('',(4.43848984834375,24.211936903426,0.));
#458=CARTESIAN_POINT('',(3.8929890349217,24.1034799655549,0.));
#459=CARTESIAN_POINT('',(3.6275039096412,24.0233093183211,0.));
#460=CARTESIAN_POINT('',(3.11125276407558,23.810410438874,0.));
#461=CARTESIAN_POINT('',(2.86222969180906,23.6776630318324,0.));
#462=CARTESIAN_POINT('',(2.40043914711765,23.370340778002,0.));
#463=CARTESIAN_POINT('',(2.18452256529857,23.1943828392373,0.));
#464=CARTESIAN_POINT('',(1.78620986396579,22.7979023364272,0.));
#465=CARTESIAN_POINT('',(1.60967025540477,22.5833427300813,0.));
#466=CARTESIAN_POINT('',(1.30021370854021,22.1227471077419,0.));
#467=CARTESIAN_POINT('',(1.16622918302796,21.8737136670151,0.));
#468=CARTESIAN_POINT('',(0.951912750409757,21.3588323197686,0.));
#469=CARTESIAN_POINT('',(0.870989183000434,21.0936007736306,0.));
#470=CARTESIAN_POINT('',(0.761475371854704,20.5475963163999,0.));
#471=CARTESIAN_POINT('',(0.733542238269221,20.2656733399159,0.));
#472=CARTESIAN_POINT('',(0.733533285427234,19.7104647602748,0.));
#473=CARTESIAN_POINT('',(0.760583484554709,19.4341696481535,0.));
#474=CARTESIAN_POINT('',(0.870467000161019,18.8842787729789,0.));
#475=CARTESIAN_POINT('',(0.952456664943846,18.6165956034375,0.));
#476=CARTESIAN_POINT('',(1.1658223600224,18.1047667914162,0.));
#477=CARTESIAN_POINT('',(1.29899000297935,17.8569196899641,0.));
#478=CARTESIAN_POINT('',(1.61143673496173,17.3929345547134,0.));
#479=CARTESIAN_POINT('',(1.78835757201471,17.1793008744981,0.));
#480=CARTESIAN_POINT('',(2.18263713831691,16.7879023749395,0.));
#481=CARTESIAN_POINT('',(2.40251361223322,16.6089148735151,0.));
#482=CARTESIAN_POINT('',(2.86623850555223,16.3018483492761,0.));
#483=CARTESIAN_POINT('',(3.11120127436095,16.1719491378585,0.));
#484=CARTESIAN_POINT('',(3.62752463176475,15.959774537105,0.));
#485=CARTESIAN_POINT('',(3.89795184105525,15.8786437384454,0.));
#486=CARTESIAN_POINT('',(4.44218647884082,15.7714321801221,0.));
#487=CARTESIAN_POINT('',(4.7187681570826,15.7440828967155,0.));
#488=CARTESIAN_POINT('',(5.2812318429174,15.7440828967155,0.));
#489=CARTESIAN_POINT('',(0.,0.,0.));
#490=CARTESIAN_POINT('',(7.35112079035179,0.,0.));
#491=CARTESIAN_POINT('',(3.,0.,0.));
#492=(
GEOMETRIC_REPRESENTATION_CONTEXT(3)
GLOBAL_UNCERTAINTY_ASSIGNED_CONTEXT((#493))
GLOBAL_UNIT_ASSIGNED_CONTEXT((#499,#495,#494))
REPRESENTATION_CONTEXT('model1','TOP_LEVEL_ASSEMBLY_PART')
);
#493=UNCERTAINTY_MEASURE_WITH_UNIT(LENGTH_MEASURE(2.E-5),#499,
'DISTANCE_ACCURACY_VALUE','Maximum Tolerance applied to model');
#494=(
NAMED_UNIT(*)
SI_UNIT($,.STERADIAN.)
SOLID_ANGLE_UNIT()
);
#495=(
CONVERSION_BASED_UNIT('DEGREE',#497)
NAMED_UNIT(#496)
PLANE_ANGLE_UNIT()
);
#496=DIMENSIONAL_EXPONENTS(0.,0.,0.,0.,0.,0.,0.);
#497=PLANE_ANGLE_MEASURE_WITH_UNIT(PLANE_ANGLE_MEASURE(0.0174532925),#498);
#498=(
NAMED_UNIT(*)
PLANE_ANGLE_UNIT()
SI_UNIT($,.RADIAN.)
);
#499=(
LENGTH_UNIT()
NAMED_UNIT(*)
SI_UNIT(.MILLI.,.METRE.)
);
ENDSEC;
END-ISO-10303-21;
