ISO-10303-21;
HEADER;
/* Generated by software containing ST-Developer
 * from STEP Tools, Inc. (www.steptools.com) 
 */
/* OPTION: using custom schema-name function */

FILE_DESCRIPTION(
/* description */ (''),
/* implementation_level */ '2;1');

FILE_NAME(
/* name */ 'model1.stp',
/* time_stamp */ '2023-11-02T16:47:56+03:00',
/* author */ (''),
/* organization */ (''),
/* preprocessor_version */ 'ST-DEVELOPER v19.4',
/* originating_system */ 'SIEMENS PLM Software NX2306.3001',
/* authorisation */ '');

FILE_SCHEMA (('AUTOMOTIVE_DESIGN { 1 0 10303 214 3 1 1 1 }'));
ENDSEC;

DATA;
#10=PROPERTY_DEFINITION_REPRESENTATION(#14,#12);
#11=PROPERTY_DEFINITION_REPRESENTATION(#15,#13);
#12=REPRESENTATION('',(#16),#480);
#13=REPRESENTATION('',(#17),#480);
#14=PROPERTY_DEFINITION('pmi validation property','',#21);
#15=PROPERTY_DEFINITION('pmi validation property','',#21);
#16=VALUE_REPRESENTATION_ITEM('number of annotations',COUNT_MEASURE(0.));
#17=VALUE_REPRESENTATION_ITEM('number of views',COUNT_MEASURE(0.));
#18=SHAPE_REPRESENTATION_RELATIONSHIP('None',
'relationship between model1_objects-None and model1_objects-None',#30,
#19);
#19=ADVANCED_BREP_SHAPE_REPRESENTATION('model1_objects-None',(#147,#148),
#480);
#20=SHAPE_DEFINITION_REPRESENTATION(#21,#30);
#21=PRODUCT_DEFINITION_SHAPE('','',#22);
#22=PRODUCT_DEFINITION(' ','',#24,#23);
#23=PRODUCT_DEFINITION_CONTEXT('part definition',#29,'design');
#24=PRODUCT_DEFINITION_FORMATION_WITH_SPECIFIED_SOURCE(' ',' ',#26,
 .NOT_KNOWN.);
#25=PRODUCT_RELATED_PRODUCT_CATEGORY('part','',(#26));
#26=PRODUCT('model1_objects','model1_objects',' ',(#27));
#27=PRODUCT_CONTEXT(' ',#29,'mechanical');
#28=APPLICATION_PROTOCOL_DEFINITION('international standard',
'automotive_design',2010,#29);
#29=APPLICATION_CONTEXT(
'core data for automotive mechanical design processes');
#30=SHAPE_REPRESENTATION('model1_objects-None',(#285),#480);
#31=OVER_RIDING_STYLED_ITEM('',(#64),#153,#61);
#32=OVER_RIDING_STYLED_ITEM('',(#65),#154,#61);
#33=OVER_RIDING_STYLED_ITEM('',(#66),#155,#61);
#34=OVER_RIDING_STYLED_ITEM('',(#67),#156,#61);
#35=OVER_RIDING_STYLED_ITEM('',(#68),#157,#61);
#36=OVER_RIDING_STYLED_ITEM('',(#69),#158,#61);
#37=OVER_RIDING_STYLED_ITEM('',(#70),#159,#61);
#38=OVER_RIDING_STYLED_ITEM('',(#71),#160,#61);
#39=OVER_RIDING_STYLED_ITEM('',(#72),#161,#61);
#40=OVER_RIDING_STYLED_ITEM('',(#73),#162,#61);
#41=OVER_RIDING_STYLED_ITEM('',(#74),#163,#61);
#42=OVER_RIDING_STYLED_ITEM('',(#75),#164,#61);
#43=COLOUR_RGB('Medium Steel',0.611764705882353,0.658823529411765,0.670588235294118);
#44=COLOUR_RGB('silver gray',0.6,0.6,0.6);
#45=VERTEX_LOOP('',#258);
#46=CONICAL_SURFACE('',#295,24.,30.);
#47=CONICAL_SURFACE('',#310,20.0888204038477,85.0000000000002);
#48=TOROIDAL_SURFACE('',#293,22.5,1.5);
#49=TOROIDAL_SURFACE('',#299,73.8,50.);
#50=TOROIDAL_SURFACE('',#301,25.,5.);
#51=TOROIDAL_SURFACE('',#305,31.,1.);
#52=TOROIDAL_SURFACE('',#307,25.7938367975965,5.01266426154992);
#53=TOROIDAL_SURFACE('',#309,20.0016646611001,1.);
#54=PLANE('',#292);
#55=FACE_OUTER_BOUND('',#199,.T.);
#56=CYLINDRICAL_SURFACE('',#290,24.);
#57=CYLINDRICAL_SURFACE('',#297,23.8);
#58=CYLINDRICAL_SURFACE('',#303,30.);
#59=PRESENTATION_LAYER_ASSIGNMENT('1','Layer 1',(#147,#148));
#60=STYLED_ITEM('',(#62),#147);
#61=STYLED_ITEM('',(#63),#148);
#62=PRESENTATION_STYLE_ASSIGNMENT((#76));
#63=PRESENTATION_STYLE_ASSIGNMENT((#77));
#64=PRESENTATION_STYLE_ASSIGNMENT((#78));
#65=PRESENTATION_STYLE_ASSIGNMENT((#79));
#66=PRESENTATION_STYLE_ASSIGNMENT((#80));
#67=PRESENTATION_STYLE_ASSIGNMENT((#81));
#68=PRESENTATION_STYLE_ASSIGNMENT((#82));
#69=PRESENTATION_STYLE_ASSIGNMENT((#83));
#70=PRESENTATION_STYLE_ASSIGNMENT((#84));
#71=PRESENTATION_STYLE_ASSIGNMENT((#85));
#72=PRESENTATION_STYLE_ASSIGNMENT((#86));
#73=PRESENTATION_STYLE_ASSIGNMENT((#87));
#74=PRESENTATION_STYLE_ASSIGNMENT((#88));
#75=PRESENTATION_STYLE_ASSIGNMENT((#89));
#76=SURFACE_STYLE_USAGE(.BOTH.,#90);
#77=SURFACE_STYLE_USAGE(.BOTH.,#91);
#78=SURFACE_STYLE_USAGE(.BOTH.,#92);
#79=SURFACE_STYLE_USAGE(.BOTH.,#93);
#80=SURFACE_STYLE_USAGE(.BOTH.,#94);
#81=SURFACE_STYLE_USAGE(.BOTH.,#95);
#82=SURFACE_STYLE_USAGE(.BOTH.,#96);
#83=SURFACE_STYLE_USAGE(.BOTH.,#97);
#84=SURFACE_STYLE_USAGE(.BOTH.,#98);
#85=SURFACE_STYLE_USAGE(.BOTH.,#99);
#86=SURFACE_STYLE_USAGE(.BOTH.,#100);
#87=SURFACE_STYLE_USAGE(.BOTH.,#101);
#88=SURFACE_STYLE_USAGE(.BOTH.,#102);
#89=SURFACE_STYLE_USAGE(.BOTH.,#103);
#90=SURFACE_SIDE_STYLE('',(#104));
#91=SURFACE_SIDE_STYLE('',(#105));
#92=SURFACE_SIDE_STYLE('',(#106));
#93=SURFACE_SIDE_STYLE('',(#107));
#94=SURFACE_SIDE_STYLE('',(#108));
#95=SURFACE_SIDE_STYLE('',(#109));
#96=SURFACE_SIDE_STYLE('',(#110));
#97=SURFACE_SIDE_STYLE('',(#111));
#98=SURFACE_SIDE_STYLE('',(#112));
#99=SURFACE_SIDE_STYLE('',(#113));
#100=SURFACE_SIDE_STYLE('',(#114));
#101=SURFACE_SIDE_STYLE('',(#115));
#102=SURFACE_SIDE_STYLE('',(#116));
#103=SURFACE_SIDE_STYLE('',(#117));
#104=SURFACE_STYLE_FILL_AREA(#118);
#105=SURFACE_STYLE_FILL_AREA(#119);
#106=SURFACE_STYLE_FILL_AREA(#120);
#107=SURFACE_STYLE_FILL_AREA(#121);
#108=SURFACE_STYLE_FILL_AREA(#122);
#109=SURFACE_STYLE_FILL_AREA(#123);
#110=SURFACE_STYLE_FILL_AREA(#124);
#111=SURFACE_STYLE_FILL_AREA(#125);
#112=SURFACE_STYLE_FILL_AREA(#126);
#113=SURFACE_STYLE_FILL_AREA(#127);
#114=SURFACE_STYLE_FILL_AREA(#128);
#115=SURFACE_STYLE_FILL_AREA(#129);
#116=SURFACE_STYLE_FILL_AREA(#130);
#117=SURFACE_STYLE_FILL_AREA(#131);
#118=FILL_AREA_STYLE('',(#132));
#119=FILL_AREA_STYLE('',(#133));
#120=FILL_AREA_STYLE('',(#134));
#121=FILL_AREA_STYLE('',(#135));
#122=FILL_AREA_STYLE('',(#136));
#123=FILL_AREA_STYLE('',(#137));
#124=FILL_AREA_STYLE('',(#138));
#125=FILL_AREA_STYLE('',(#139));
#126=FILL_AREA_STYLE('',(#140));
#127=FILL_AREA_STYLE('',(#141));
#128=FILL_AREA_STYLE('',(#142));
#129=FILL_AREA_STYLE('',(#143));
#130=FILL_AREA_STYLE('',(#144));
#131=FILL_AREA_STYLE('',(#145));
#132=FILL_AREA_STYLE_COLOUR('',#146);
#133=FILL_AREA_STYLE_COLOUR('',#43);
#134=FILL_AREA_STYLE_COLOUR('',#44);
#135=FILL_AREA_STYLE_COLOUR('',#44);
#136=FILL_AREA_STYLE_COLOUR('',#44);
#137=FILL_AREA_STYLE_COLOUR('',#44);
#138=FILL_AREA_STYLE_COLOUR('',#44);
#139=FILL_AREA_STYLE_COLOUR('',#44);
#140=FILL_AREA_STYLE_COLOUR('',#44);
#141=FILL_AREA_STYLE_COLOUR('',#44);
#142=FILL_AREA_STYLE_COLOUR('',#44);
#143=FILL_AREA_STYLE_COLOUR('',#44);
#144=FILL_AREA_STYLE_COLOUR('',#44);
#145=FILL_AREA_STYLE_COLOUR('',#44);
#146=DRAUGHTING_PRE_DEFINED_COLOUR('yellow');
#147=MANIFOLD_SOLID_BREP('',#149);
#148=MANIFOLD_SOLID_BREP('',#150);
#149=CLOSED_SHELL('',(#151,#152));
#150=CLOSED_SHELL('',(#153,#154,#155,#156,#157,#158,#159,#160,#161,#162,
#163,#164));
#151=ADVANCED_FACE('',(#167,#168),#165,.F.);
#152=ADVANCED_FACE('',(#169,#170),#166,.F.);
#153=ADVANCED_FACE('',(#171,#172),#56,.T.);
#154=ADVANCED_FACE('',(#55),#54,.F.);
#155=ADVANCED_FACE('',(#173,#174),#48,.T.);
#156=ADVANCED_FACE('',(#175,#176),#46,.T.);
#157=ADVANCED_FACE('',(#177,#178),#57,.T.);
#158=ADVANCED_FACE('',(#179,#180),#49,.F.);
#159=ADVANCED_FACE('',(#181,#182),#50,.T.);
#160=ADVANCED_FACE('',(#183,#184),#58,.T.);
#161=ADVANCED_FACE('',(#185,#186),#51,.F.);
#162=ADVANCED_FACE('',(#187,#188),#52,.T.);
#163=ADVANCED_FACE('',(#189,#190),#53,.F.);
#164=ADVANCED_FACE('',(#191,#192),#47,.F.);
#165=(
BOUNDED_SURFACE()
B_SPLINE_SURFACE(3,3,((#368,#369,#370,#371,#372,#373,#374),(#375,#376,#377,
#378,#379,#380,#381),(#382,#383,#384,#385,#386,#387,#388),(#389,#390,#391,
#392,#393,#394,#395),(#396,#397,#398,#399,#400,#401,#402),(#403,#404,#405,
#406,#407,#408,#409),(#410,#411,#412,#413,#414,#415,#416)),
 .UNSPECIFIED.,.T.,.F.,.F.)
B_SPLINE_SURFACE_WITH_KNOTS((1,3,3,3,1),(4,3,4),(-0.5,0.,0.5,1.,1.5),(0.,
0.5,1.),.UNSPECIFIED.)
GEOMETRIC_REPRESENTATION_ITEM()
RATIONAL_B_SPLINE_SURFACE(((1.,0.590454405885727,0.590454405885727,1.,0.590454405885727,
0.590454405885727,1.),(0.333333333333334,0.196818135295243,0.196818135295243,
0.333333333333334,0.196818135295243,0.196818135295243,0.333333333333334),
(0.333333333333334,0.196818135295243,0.196818135295243,0.333333333333334,
0.196818135295243,0.196818135295243,0.333333333333334),(1.,0.590454405885727,
0.590454405885727,1.,0.590454405885727,0.590454405885727,1.),(0.333333333333334,
0.196818135295243,0.196818135295243,0.333333333333334,0.196818135295243,
0.196818135295243,0.333333333333334),(0.333333333333334,0.196818135295243,
0.196818135295243,0.333333333333334,0.196818135295243,0.196818135295243,
0.333333333333334),(1.,0.590454405885727,0.590454405885727,1.,0.590454405885727,
0.590454405885727,1.)))
REPRESENTATION_ITEM('')
SURFACE()
);
#166=(
BOUNDED_SURFACE()
B_SPLINE_SURFACE(3,3,((#417,#418,#419,#420),(#421,#422,#423,#424),(#425,
#426,#427,#428),(#429,#430,#431,#432),(#433,#434,#435,#436),(#437,#438,
#439,#440),(#441,#442,#443,#444)),.UNSPECIFIED.,.T.,.F.,.F.)
B_SPLINE_SURFACE_WITH_KNOTS((1,3,3,3,1),(4,4),(-0.5,0.,0.5,1.,1.5),(0.,
1.),.UNSPECIFIED.)
GEOMETRIC_REPRESENTATION_ITEM()
RATIONAL_B_SPLINE_SURFACE(((1.,0.80166626214852,0.80166626214852,1.),(0.333333333333334,
0.26722208738284,0.26722208738284,0.333333333333334),(0.333333333333334,
0.26722208738284,0.26722208738284,0.333333333333334),(1.,0.80166626214852,
0.80166626214852,1.),(0.333333333333334,0.26722208738284,0.26722208738284,
0.333333333333334),(0.333333333333334,0.26722208738284,0.26722208738284,
0.333333333333334),(1.,0.80166626214852,0.80166626214852,1.)))
REPRESENTATION_ITEM('')
SURFACE()
);
#167=FACE_BOUND('',#193,.T.);
#168=FACE_BOUND('',#194,.T.);
#169=FACE_BOUND('',#195,.T.);
#170=FACE_BOUND('',#196,.T.);
#171=FACE_BOUND('',#197,.T.);
#172=FACE_BOUND('',#198,.T.);
#173=FACE_BOUND('',#200,.T.);
#174=FACE_BOUND('',#201,.T.);
#175=FACE_BOUND('',#202,.T.);
#176=FACE_BOUND('',#203,.T.);
#177=FACE_BOUND('',#204,.T.);
#178=FACE_BOUND('',#205,.T.);
#179=FACE_BOUND('',#206,.T.);
#180=FACE_BOUND('',#207,.T.);
#181=FACE_BOUND('',#208,.T.);
#182=FACE_BOUND('',#209,.T.);
#183=FACE_BOUND('',#210,.T.);
#184=FACE_BOUND('',#211,.T.);
#185=FACE_BOUND('',#212,.T.);
#186=FACE_BOUND('',#213,.T.);
#187=FACE_BOUND('',#214,.T.);
#188=FACE_BOUND('',#215,.T.);
#189=FACE_BOUND('',#216,.T.);
#190=FACE_BOUND('',#217,.T.);
#191=FACE_BOUND('',#218,.T.);
#192=FACE_BOUND('',#45,.T.);
#193=EDGE_LOOP('',(#219));
#194=EDGE_LOOP('',(#220));
#195=EDGE_LOOP('',(#221));
#196=EDGE_LOOP('',(#222));
#197=EDGE_LOOP('',(#223));
#198=EDGE_LOOP('',(#224));
#199=EDGE_LOOP('',(#225));
#200=EDGE_LOOP('',(#226));
#201=EDGE_LOOP('',(#227));
#202=EDGE_LOOP('',(#228));
#203=EDGE_LOOP('',(#229));
#204=EDGE_LOOP('',(#230));
#205=EDGE_LOOP('',(#231));
#206=EDGE_LOOP('',(#232));
#207=EDGE_LOOP('',(#233));
#208=EDGE_LOOP('',(#234));
#209=EDGE_LOOP('',(#235));
#210=EDGE_LOOP('',(#236));
#211=EDGE_LOOP('',(#237));
#212=EDGE_LOOP('',(#238));
#213=EDGE_LOOP('',(#239));
#214=EDGE_LOOP('',(#240));
#215=EDGE_LOOP('',(#241));
#216=EDGE_LOOP('',(#242));
#217=EDGE_LOOP('',(#243));
#218=EDGE_LOOP('',(#244));
#219=ORIENTED_EDGE('',*,*,#259,.T.);
#220=ORIENTED_EDGE('',*,*,#260,.F.);
#221=ORIENTED_EDGE('',*,*,#260,.T.);
#222=ORIENTED_EDGE('',*,*,#259,.F.);
#223=ORIENTED_EDGE('',*,*,#261,.T.);
#224=ORIENTED_EDGE('',*,*,#262,.F.);
#225=ORIENTED_EDGE('',*,*,#263,.F.);
#226=ORIENTED_EDGE('',*,*,#261,.F.);
#227=ORIENTED_EDGE('',*,*,#263,.T.);
#228=ORIENTED_EDGE('',*,*,#264,.F.);
#229=ORIENTED_EDGE('',*,*,#262,.T.);
#230=ORIENTED_EDGE('',*,*,#265,.F.);
#231=ORIENTED_EDGE('',*,*,#264,.T.);
#232=ORIENTED_EDGE('',*,*,#266,.F.);
#233=ORIENTED_EDGE('',*,*,#265,.T.);
#234=ORIENTED_EDGE('',*,*,#267,.F.);
#235=ORIENTED_EDGE('',*,*,#266,.T.);
#236=ORIENTED_EDGE('',*,*,#268,.F.);
#237=ORIENTED_EDGE('',*,*,#267,.T.);
#238=ORIENTED_EDGE('',*,*,#269,.F.);
#239=ORIENTED_EDGE('',*,*,#268,.T.);
#240=ORIENTED_EDGE('',*,*,#270,.F.);
#241=ORIENTED_EDGE('',*,*,#269,.T.);
#242=ORIENTED_EDGE('',*,*,#271,.F.);
#243=ORIENTED_EDGE('',*,*,#270,.T.);
#244=ORIENTED_EDGE('',*,*,#271,.T.);
#245=VERTEX_POINT('',#365);
#246=VERTEX_POINT('',#367);
#247=VERTEX_POINT('',#446);
#248=VERTEX_POINT('',#448);
#249=VERTEX_POINT('',#451);
#250=VERTEX_POINT('',#455);
#251=VERTEX_POINT('',#458);
#252=VERTEX_POINT('',#461);
#253=VERTEX_POINT('',#464);
#254=VERTEX_POINT('',#467);
#255=VERTEX_POINT('',#470);
#256=VERTEX_POINT('',#473);
#257=VERTEX_POINT('',#476);
#258=VERTEX_POINT('',#478);
#259=EDGE_CURVE('',#245,#245,#272,.T.);
#260=EDGE_CURVE('',#246,#246,#273,.T.);
#261=EDGE_CURVE('',#247,#247,#274,.T.);
#262=EDGE_CURVE('',#248,#248,#275,.T.);
#263=EDGE_CURVE('',#249,#249,#276,.T.);
#264=EDGE_CURVE('',#250,#250,#277,.T.);
#265=EDGE_CURVE('',#251,#251,#278,.T.);
#266=EDGE_CURVE('',#252,#252,#279,.T.);
#267=EDGE_CURVE('',#253,#253,#280,.T.);
#268=EDGE_CURVE('',#254,#254,#281,.T.);
#269=EDGE_CURVE('',#255,#255,#282,.T.);
#270=EDGE_CURVE('',#256,#256,#283,.T.);
#271=EDGE_CURVE('',#257,#257,#284,.T.);
#272=CIRCLE('',#286,6.);
#273=CIRCLE('',#287,6.);
#274=CIRCLE('',#288,24.);
#275=CIRCLE('',#289,24.);
#276=CIRCLE('',#291,22.5);
#277=CIRCLE('',#294,23.8);
#278=CIRCLE('',#296,23.8);
#279=CIRCLE('',#298,29.4363636363637);
#280=CIRCLE('',#300,30.);
#281=CIRCLE('',#302,30.);
#282=CIRCLE('',#304,30.1242004481827);
#283=CIRCLE('',#306,20.9649933760487);
#284=CIRCLE('',#308,20.0888204038477);
#285=AXIS2_PLACEMENT_3D('',#363,#311,#312);
#286=AXIS2_PLACEMENT_3D('',#364,#313,#314);
#287=AXIS2_PLACEMENT_3D('',#366,#315,#316);
#288=AXIS2_PLACEMENT_3D('',#445,#317,#318);
#289=AXIS2_PLACEMENT_3D('',#447,#319,#320);
#290=AXIS2_PLACEMENT_3D('',#449,#321,#322);
#291=AXIS2_PLACEMENT_3D('',#450,#323,#324);
#292=AXIS2_PLACEMENT_3D('',#452,#325,#326);
#293=AXIS2_PLACEMENT_3D('',#453,#327,#328);
#294=AXIS2_PLACEMENT_3D('',#454,#329,#330);
#295=AXIS2_PLACEMENT_3D('',#456,#331,#332);
#296=AXIS2_PLACEMENT_3D('',#457,#333,#334);
#297=AXIS2_PLACEMENT_3D('',#459,#335,#336);
#298=AXIS2_PLACEMENT_3D('',#460,#337,#338);
#299=AXIS2_PLACEMENT_3D('',#462,#339,#340);
#300=AXIS2_PLACEMENT_3D('',#463,#341,#342);
#301=AXIS2_PLACEMENT_3D('',#465,#343,#344);
#302=AXIS2_PLACEMENT_3D('',#466,#345,#346);
#303=AXIS2_PLACEMENT_3D('',#468,#347,#348);
#304=AXIS2_PLACEMENT_3D('',#469,#349,#350);
#305=AXIS2_PLACEMENT_3D('',#471,#351,#352);
#306=AXIS2_PLACEMENT_3D('',#472,#353,#354);
#307=AXIS2_PLACEMENT_3D('',#474,#355,#356);
#308=AXIS2_PLACEMENT_3D('',#475,#357,#358);
#309=AXIS2_PLACEMENT_3D('',#477,#359,#360);
#310=AXIS2_PLACEMENT_3D('',#479,#361,#362);
#311=DIRECTION('',(0.,0.,1.));
#312=DIRECTION('',(1.,0.,0.));
#313=DIRECTION('',(0.052335956242944,0.998160697921874,0.0305968757923758));
#314=DIRECTION('',(0.998626927645156,-0.0523812597411359,0.000680448328055823));
#315=DIRECTION('',(0.052335956242944,-0.0435596085109251,0.997679060715675));
#316=DIRECTION('',(0.998626927645156,0.,-0.0523856791689818));
#317=DIRECTION('',(-1.,0.,0.));
#318=DIRECTION('',(0.,0.,1.));
#319=DIRECTION('',(-1.,0.,0.));
#320=DIRECTION('',(0.,0.,1.));
#321=DIRECTION('',(-1.,0.,0.));
#322=DIRECTION('',(0.,0.,1.));
#323=DIRECTION('',(-1.,0.,0.));
#324=DIRECTION('',(0.,0.,1.));
#325=DIRECTION('',(-1.,0.,0.));
#326=DIRECTION('',(0.,0.,1.));
#327=DIRECTION('',(-1.,0.,0.));
#328=DIRECTION('',(0.,0.,1.));
#329=DIRECTION('',(-1.,0.,0.));
#330=DIRECTION('',(0.,0.,1.));
#331=DIRECTION('',(1.,0.,0.));
#332=DIRECTION('',(-1.26927411283674E-16,0.,-1.));
#333=DIRECTION('',(-1.,0.,0.));
#334=DIRECTION('',(0.,0.,1.));
#335=DIRECTION('',(-1.,0.,0.));
#336=DIRECTION('',(0.,0.,1.));
#337=DIRECTION('',(-1.,0.,0.));
#338=DIRECTION('',(0.,0.,1.));
#339=DIRECTION('',(-1.,0.,0.));
#340=DIRECTION('',(0.,0.,1.));
#341=DIRECTION('',(-1.,0.,0.));
#342=DIRECTION('',(0.,0.,1.));
#343=DIRECTION('',(-1.,0.,0.));
#344=DIRECTION('',(0.,0.,1.));
#345=DIRECTION('',(-1.,0.,0.));
#346=DIRECTION('',(0.,0.,1.));
#347=DIRECTION('',(-1.,0.,0.));
#348=DIRECTION('',(0.,0.,1.));
#349=DIRECTION('',(-1.,0.,0.));
#350=DIRECTION('',(0.,0.,1.));
#351=DIRECTION('',(-1.,0.,0.));
#352=DIRECTION('',(0.,0.,1.));
#353=DIRECTION('',(-1.,0.,0.));
#354=DIRECTION('',(0.,0.,1.));
#355=DIRECTION('',(-1.,0.,0.));
#356=DIRECTION('',(0.,0.,1.));
#357=DIRECTION('',(-1.,0.,0.));
#358=DIRECTION('',(0.,0.,1.));
#359=DIRECTION('',(-1.,0.,0.));
#360=DIRECTION('',(0.,0.,1.));
#361=DIRECTION('',(-1.,0.,0.));
#362=DIRECTION('',(4.6965733589503E-18,0.,1.));
#363=CARTESIAN_POINT('',(0.,0.,0.));
#364=CARTESIAN_POINT('',(5.99177720852745,0.27928626614391,25.5029652236986));
#365=CARTESIAN_POINT('',(11.9835387743984,-0.0350012923029055,25.5070479136669));
#366=CARTESIAN_POINT('',(5.99177720852745,-25.5044414164179,-0.0520005398637782));
#367=CARTESIAN_POINT('',(11.9835387743984,-25.5044414164179,-0.366314614877669));
#368=CARTESIAN_POINT('',(11.9835387743984,-25.5044414164179,-0.366314614877669));
#369=CARTESIAN_POINT('',(11.9835387743984,-25.1228442822031,-26.9347925269696));
#370=CARTESIAN_POINT('',(11.9835387743984,-0.462742968067645,-36.829692128013));
#371=CARTESIAN_POINT('',(11.9835387743984,18.1775549951412,-17.8937758105767));
#372=CARTESIAN_POINT('',(11.9835387743984,36.81785295835,1.04214050685947));
#373=CARTESIAN_POINT('',(11.9835387743984,26.5361918592039,25.5435094478077));
#374=CARTESIAN_POINT('',(11.9835387743984,-0.0350012923029073,25.5070479136669));
#375=CARTESIAN_POINT('',(12.0109215705125,-13.5158314589241,0.155682961322622));
#376=CARTESIAN_POINT('',(12.0109215705125,-13.6780094596752,-13.9240243224771));
#377=CARTESIAN_POINT('',(12.0109215705125,-0.750170886775692,-19.5039390829784));
#378=CARTESIAN_POINT('',(12.0109215705125,9.38406627291988,-9.72837280309183));
#379=CARTESIAN_POINT('',(12.0109215705125,19.5183034326154,0.0471934767947799));
#380=CARTESIAN_POINT('',(12.0109215705125,14.4076426437196,13.1676204973705));
#381=CARTESIAN_POINT('',(12.0109215705125,0.331229733546987,13.5126690211114));
#382=CARTESIAN_POINT('',(0.0273984387706631,-13.5158314589241,0.784311111350404));
#383=CARTESIAN_POINT('',(0.0273984387706631,-14.3328637592162,-13.2953961724493));
#384=CARTESIAN_POINT('',(0.0273984387706631,-1.65759044611196,-19.4795004257191));
#385=CARTESIAN_POINT('',(0.0273984387706631,8.93668146166048,-10.1699836970491));
#386=CARTESIAN_POINT('',(0.0273984387706631,19.5309533694329,-0.86046696837906));
#387=CARTESIAN_POINT('',(0.0273984387706631,15.0277117238431,12.504656063551));
#388=CARTESIAN_POINT('',(0.0273984387706631,0.959804850440618,13.5045036411747));
#389=CARTESIAN_POINT('',(1.56426565043125E-5,-25.5044414164179,0.262313535150113));
#390=CARTESIAN_POINT('',(1.56426565043125E-5,-25.7776985817441,-26.3061643769418));
#391=CARTESIAN_POINT('',(1.56426565043125E-5,-1.37016252740391,-36.8052534707538));
#392=CARTESIAN_POINT('',(1.56426565043125E-5,17.7301701838818,-18.3353867045341));
#393=CARTESIAN_POINT('',(1.56426565043125E-5,36.8305028951675,0.134480061685625));
#394=CARTESIAN_POINT('',(1.56426565043125E-5,27.1562609393273,24.8805450139882));
#395=CARTESIAN_POINT('',(1.56426565043125E-5,0.593573824590722,25.4988825337303));
#396=CARTESIAN_POINT('',(-0.0273671534576544,-37.4930513739116,-0.259684041050179));
#397=CARTESIAN_POINT('',(-0.0273671534576544,-37.2225334042719,-39.3169325814342));
#398=CARTESIAN_POINT('',(-0.0273671534576544,-1.08273460869587,-54.1310065157882));
#399=CARTESIAN_POINT('',(-0.0273671534576544,26.5236589061031,-26.5007897120189));
#400=CARTESIAN_POINT('',(-0.0273671534576544,54.1300524209019,1.12942709175031));
#401=CARTESIAN_POINT('',(-0.0273671534576544,39.2848101548116,37.2564339644254));
#402=CARTESIAN_POINT('',(-0.0273671534576544,0.227342798740825,37.4932614262858));
#403=CARTESIAN_POINT('',(11.9561559782842,-37.4930513739116,-0.88831219107796));
#404=CARTESIAN_POINT('',(11.9561559782842,-36.5676791047309,-39.9455607314619));
#405=CARTESIAN_POINT('',(11.9561559782842,-0.175315049359598,-54.1554451730474));
#406=CARTESIAN_POINT('',(11.9561559782842,26.9710437173625,-26.0591788180617));
#407=CARTESIAN_POINT('',(11.9561559782842,54.1174024840845,2.03708753692416));
#408=CARTESIAN_POINT('',(11.9561559782842,38.6647410746882,37.9193983982448));
#409=CARTESIAN_POINT('',(11.9561559782842,-0.401232318152808,37.5014268062225));
#410=CARTESIAN_POINT('',(11.9835387743984,-25.5044414164179,-0.366314614877669));
#411=CARTESIAN_POINT('',(11.9835387743984,-25.1228442822031,-26.9347925269696));
#412=CARTESIAN_POINT('',(11.9835387743984,-0.462742968067645,-36.829692128013));
#413=CARTESIAN_POINT('',(11.9835387743984,18.1775549951412,-17.8937758105767));
#414=CARTESIAN_POINT('',(11.9835387743984,36.81785295835,1.04214050685947));
#415=CARTESIAN_POINT('',(11.9835387743984,26.5361918592039,25.5435094478077));
#416=CARTESIAN_POINT('',(11.9835387743984,-0.0350012923029073,25.5070479136669));
#417=CARTESIAN_POINT('',(11.9835387743984,-0.0350012923029053,25.5070479136669));
#418=CARTESIAN_POINT('',(11.9835387743984,-15.1310310373868,25.4863328332112));
#419=CARTESIAN_POINT('',(11.9835387743984,-25.7212401749794,14.728172507158));
#420=CARTESIAN_POINT('',(11.9835387743984,-25.5044414164179,-0.366314614877668));
#421=CARTESIAN_POINT('',(12.0109215705125,0.33122973354699,13.5126690211114));
#422=CARTESIAN_POINT('',(12.0109215705125,-7.66607572369772,13.7087032280885));
#423=CARTESIAN_POINT('',(12.0109215705125,-13.4236924304139,8.15486006813845));
#424=CARTESIAN_POINT('',(12.0109215705125,-13.5158314589241,0.155682961322623));
#425=CARTESIAN_POINT('',(0.0273984387706631,0.95980485044062,13.5045036411747));
#426=CARTESIAN_POINT('',(0.0273984387706631,-7.03266802802739,14.0725522299714));
#427=CARTESIAN_POINT('',(0.0273984387706631,-13.051646661592,8.78348821816622));
#428=CARTESIAN_POINT('',(0.0273984387706631,-13.5158314589241,0.784311111350406));
#429=CARTESIAN_POINT('',(1.56426565043125E-5,0.593573824590725,25.4988825337303));
#430=CARTESIAN_POINT('',(1.56426565043125E-5,-14.4976233417164,25.8501818350941));
#431=CARTESIAN_POINT('',(1.56426565043125E-5,-25.3491944061576,15.3568006571858));
#432=CARTESIAN_POINT('',(1.56426565043125E-5,-25.5044414164179,0.262313535150115));
#433=CARTESIAN_POINT('',(-0.0273671534576544,0.227342798740829,37.4932614262858));
#434=CARTESIAN_POINT('',(-0.0273671534576545,-21.9625786554055,37.6278114402168));
#435=CARTESIAN_POINT('',(-0.0273671534576545,-37.646742150723,21.9301130962053));
#436=CARTESIAN_POINT('',(-0.0273671534576544,-37.4930513739116,-0.259684041050176));
#437=CARTESIAN_POINT('',(11.9561559782842,-0.401232318152801,37.5014268062225));
#438=CARTESIAN_POINT('',(11.9561559782842,-22.5959863510758,37.2639624383339));
#439=CARTESIAN_POINT('',(11.9561559782842,-38.0187879195449,21.3014849461776));
#440=CARTESIAN_POINT('',(11.9561559782842,-37.4930513739116,-0.888312191077959));
#441=CARTESIAN_POINT('',(11.9835387743984,-0.0350012923029053,25.5070479136669));
#442=CARTESIAN_POINT('',(11.9835387743984,-15.1310310373868,25.4863328332112));
#443=CARTESIAN_POINT('',(11.9835387743984,-25.7212401749794,14.728172507158));
#444=CARTESIAN_POINT('',(11.9835387743984,-25.5044414164179,-0.366314614877668));
#445=CARTESIAN_POINT('',(48.5,0.,0.));
#446=CARTESIAN_POINT('',(48.5,0.,24.));
#447=CARTESIAN_POINT('',(41.,0.,0.));
#448=CARTESIAN_POINT('',(41.,0.,24.));
#449=CARTESIAN_POINT('',(0.,0.,0.));
#450=CARTESIAN_POINT('',(50.,0.,0.));
#451=CARTESIAN_POINT('',(50.,0.,22.5));
#452=CARTESIAN_POINT('',(50.,12.,0.));
#453=CARTESIAN_POINT('',(48.5,0.,0.));
#454=CARTESIAN_POINT('',(40.6535898384862,0.,0.));
#455=CARTESIAN_POINT('',(40.6535898384862,0.,23.8));
#456=CARTESIAN_POINT('',(41.,0.,0.));
#457=CARTESIAN_POINT('',(40.,0.,0.));
#458=CARTESIAN_POINT('',(40.,0.,23.8));
#459=CARTESIAN_POINT('',(0.,0.,0.));
#460=CARTESIAN_POINT('',(16.9377414680383,0.,0.));
#461=CARTESIAN_POINT('',(16.9377414680383,0.,29.4363636363637));
#462=CARTESIAN_POINT('',(40.,0.,0.));
#463=CARTESIAN_POINT('',(14.6315156148421,0.,0.));
#464=CARTESIAN_POINT('',(14.6315156148421,0.,30.));
#465=CARTESIAN_POINT('',(14.6315156148421,0.,0.));
#466=CARTESIAN_POINT('',(8.68929856830471,0.,0.));
#467=CARTESIAN_POINT('',(8.68929856830471,0.,30.));
#468=CARTESIAN_POINT('',(0.,0.,0.));
#469=CARTESIAN_POINT('',(8.20662357927313,0.,0.));
#470=CARTESIAN_POINT('',(8.20662357927313,0.,30.1242004481827));
#471=CARTESIAN_POINT('',(8.68929856830471,0.,0.));
#472=CARTESIAN_POINT('',(4.33677783593195,0.,0.));
#473=CARTESIAN_POINT('',(4.33677783593195,0.,20.9649933760487));
#474=CARTESIAN_POINT('',(5.68179612918828,0.,0.));
#475=CARTESIAN_POINT('',(5.06464850052052,0.,0.));
#476=CARTESIAN_POINT('',(5.06464850052052,0.,20.0888204038477));
#477=CARTESIAN_POINT('',(4.06845380242877,0.,0.));
#478=CARTESIAN_POINT('',(6.82219254946541,0.,0.));
#479=CARTESIAN_POINT('',(5.06464850052052,0.,0.));
#480=(
GEOMETRIC_REPRESENTATION_CONTEXT(3)
GLOBAL_UNCERTAINTY_ASSIGNED_CONTEXT((#481))
GLOBAL_UNIT_ASSIGNED_CONTEXT((#487,#483,#482))
REPRESENTATION_CONTEXT('model1','TOP_LEVEL_ASSEMBLY_PART')
);
#481=UNCERTAINTY_MEASURE_WITH_UNIT(LENGTH_MEASURE(2.E-5),#487,
'DISTANCE_ACCURACY_VALUE','Maximum Tolerance applied to model');
#482=(
NAMED_UNIT(*)
SI_UNIT($,.STERADIAN.)
SOLID_ANGLE_UNIT()
);
#483=(
CONVERSION_BASED_UNIT('DEGREE',#485)
NAMED_UNIT(#484)
PLANE_ANGLE_UNIT()
);
#484=DIMENSIONAL_EXPONENTS(0.,0.,0.,0.,0.,0.,0.);
#485=PLANE_ANGLE_MEASURE_WITH_UNIT(PLANE_ANGLE_MEASURE(0.0174532925),#486);
#486=(
NAMED_UNIT(*)
PLANE_ANGLE_UNIT()
SI_UNIT($,.RADIAN.)
);
#487=(
LENGTH_UNIT()
NAMED_UNIT(*)
SI_UNIT(.MILLI.,.METRE.)
);
ENDSEC;
END-ISO-10303-21;
