ISO-10303-21;
HEADER;
/* Generated by software containing ST-Developer
 * from STEP Tools, Inc. (www.steptools.com) 
 */
/* OPTION: using custom schema-name function */

FILE_DESCRIPTION(
/* description */ (''),
/* implementation_level */ '2;1');

FILE_NAME(
/* name */ 'model1.stp',
/* time_stamp */ '2023-11-06T14:42:05+03:00',
/* author */ (''),
/* organization */ (''),
/* preprocessor_version */ 'ST-DEVELOPER v19.4',
/* originating_system */ 'SIEMENS PLM Software NX2306.3001',
/* authorisation */ '');

FILE_SCHEMA (('AUTOMOTIVE_DESIGN { 1 0 10303 214 3 1 1 1 }'));
ENDSEC;

DATA;
#10=PROPERTY_DEFINITION_REPRESENTATION(#14,#12);
#11=PROPERTY_DEFINITION_REPRESENTATION(#15,#13);
#12=REPRESENTATION('',(#16),#467);
#13=REPRESENTATION('',(#17),#467);
#14=PROPERTY_DEFINITION('pmi validation property','',#21);
#15=PROPERTY_DEFINITION('pmi validation property','',#21);
#16=VALUE_REPRESENTATION_ITEM('number of annotations',COUNT_MEASURE(0.));
#17=VALUE_REPRESENTATION_ITEM('number of views',COUNT_MEASURE(0.));
#18=SHAPE_REPRESENTATION_RELATIONSHIP('None',
'relationship between model1_objects-None and model1_objects-None',#30,
#19);
#19=ADVANCED_BREP_SHAPE_REPRESENTATION('model1_objects-None',(#125,#126),
#467);
#20=SHAPE_DEFINITION_REPRESENTATION(#21,#30);
#21=PRODUCT_DEFINITION_SHAPE('','',#22);
#22=PRODUCT_DEFINITION(' ','',#24,#23);
#23=PRODUCT_DEFINITION_CONTEXT('part definition',#29,'design');
#24=PRODUCT_DEFINITION_FORMATION_WITH_SPECIFIED_SOURCE(' ',' ',#26,
 .NOT_KNOWN.);
#25=PRODUCT_RELATED_PRODUCT_CATEGORY('part','',(#26));
#26=PRODUCT('model1_objects','model1_objects',' ',(#27));
#27=PRODUCT_CONTEXT(' ',#29,'mechanical');
#28=APPLICATION_PROTOCOL_DEFINITION('international standard',
'automotive_design',2010,#29);
#29=APPLICATION_CONTEXT(
'core data for automotive mechanical design processes');
#30=SHAPE_REPRESENTATION('model1_objects-None',(#233),#467);
#31=OVER_RIDING_STYLED_ITEM('',(#60),#131,#57);
#32=OVER_RIDING_STYLED_ITEM('',(#61),#132,#57);
#33=OVER_RIDING_STYLED_ITEM('',(#62),#133,#57);
#34=OVER_RIDING_STYLED_ITEM('',(#63),#134,#57);
#35=OVER_RIDING_STYLED_ITEM('',(#64),#135,#57);
#36=OVER_RIDING_STYLED_ITEM('',(#65),#136,#57);
#37=OVER_RIDING_STYLED_ITEM('',(#66),#137,#57);
#38=OVER_RIDING_STYLED_ITEM('',(#67),#138,#57);
#39=OVER_RIDING_STYLED_ITEM('',(#68),#139,#57);
#40=COLOUR_RGB('Medium Steel',0.611764705882353,0.658823529411765,0.670588235294118);
#41=COLOUR_RGB('silver gray',0.6,0.6,0.6);
#42=SURFACE_OF_REVOLUTION('',#44,#43);
#43=AXIS1_PLACEMENT('',#459,#280);
#44=B_SPLINE_CURVE_WITH_KNOTS('',3,(#391,#392,#393,#394,#395,#396,#397,
#398,#399,#400,#401,#402,#403,#404,#405,#406,#407,#408,#409,#410,#411,#412,
#413,#414,#415,#416,#417,#418,#419,#420,#421,#422,#423,#424,#425,#426,#427,
#428,#429,#430,#431,#432,#433,#434,#435,#436,#437,#438,#439,#440,#441,#442,
#443,#444,#445,#446,#447,#448,#449,#450,#451,#452,#453,#454,#455,#456,#457,
#458),.UNSPECIFIED.,.T.,.F.,(2,2,2,2,2,2,2,2,2,2,2,2,2,2,2,2,2,2,2,2,2,
2,2,2,2,2,2,2,2,2,2,2,2,2,2,2),(-0.03125,0.,0.0312499999999996,0.0625,0.09375,
0.125,0.140625,0.15625,0.1875,0.21875,0.25,0.28125,0.3125,0.34375,0.375,
0.40625,0.4375,0.46875,0.5,0.53125,0.5625,0.59375,0.625,0.65625,0.6875,
0.71875,0.75,0.78125,0.8125,0.84375,0.875,0.90625,0.9375,0.96875,1.,1.03125),
 .UNSPECIFIED.);
#45=CONICAL_SURFACE('',#245,16.3828353866601,69.9999999998123);
#46=VERTEX_LOOP('',#209);
#47=PLANE('',#241);
#48=FACE_OUTER_BOUND('',#170,.T.);
#49=TOROIDAL_SURFACE('',#240,19.5,1.5);
#50=TOROIDAL_SURFACE('',#243,16.,5.);
#51=TOROIDAL_SURFACE('',#250,19.,5.);
#52=TOROIDAL_SURFACE('',#251,70.5,50.);
#53=CYLINDRICAL_SURFACE('',#238,21.);
#54=CYLINDRICAL_SURFACE('',#248,24.);
#55=PRESENTATION_LAYER_ASSIGNMENT('1','Layer 1',(#125,#126));
#56=STYLED_ITEM('',(#58),#125);
#57=STYLED_ITEM('',(#59),#126);
#58=PRESENTATION_STYLE_ASSIGNMENT((#69));
#59=PRESENTATION_STYLE_ASSIGNMENT((#70));
#60=PRESENTATION_STYLE_ASSIGNMENT((#71));
#61=PRESENTATION_STYLE_ASSIGNMENT((#72));
#62=PRESENTATION_STYLE_ASSIGNMENT((#73));
#63=PRESENTATION_STYLE_ASSIGNMENT((#74));
#64=PRESENTATION_STYLE_ASSIGNMENT((#75));
#65=PRESENTATION_STYLE_ASSIGNMENT((#76));
#66=PRESENTATION_STYLE_ASSIGNMENT((#77));
#67=PRESENTATION_STYLE_ASSIGNMENT((#78));
#68=PRESENTATION_STYLE_ASSIGNMENT((#79));
#69=SURFACE_STYLE_USAGE(.BOTH.,#80);
#70=SURFACE_STYLE_USAGE(.BOTH.,#81);
#71=SURFACE_STYLE_USAGE(.BOTH.,#82);
#72=SURFACE_STYLE_USAGE(.BOTH.,#83);
#73=SURFACE_STYLE_USAGE(.BOTH.,#84);
#74=SURFACE_STYLE_USAGE(.BOTH.,#85);
#75=SURFACE_STYLE_USAGE(.BOTH.,#86);
#76=SURFACE_STYLE_USAGE(.BOTH.,#87);
#77=SURFACE_STYLE_USAGE(.BOTH.,#88);
#78=SURFACE_STYLE_USAGE(.BOTH.,#89);
#79=SURFACE_STYLE_USAGE(.BOTH.,#90);
#80=SURFACE_SIDE_STYLE('',(#91));
#81=SURFACE_SIDE_STYLE('',(#92));
#82=SURFACE_SIDE_STYLE('',(#93));
#83=SURFACE_SIDE_STYLE('',(#94));
#84=SURFACE_SIDE_STYLE('',(#95));
#85=SURFACE_SIDE_STYLE('',(#96));
#86=SURFACE_SIDE_STYLE('',(#97));
#87=SURFACE_SIDE_STYLE('',(#98));
#88=SURFACE_SIDE_STYLE('',(#99));
#89=SURFACE_SIDE_STYLE('',(#100));
#90=SURFACE_SIDE_STYLE('',(#101));
#91=SURFACE_STYLE_FILL_AREA(#102);
#92=SURFACE_STYLE_FILL_AREA(#103);
#93=SURFACE_STYLE_FILL_AREA(#104);
#94=SURFACE_STYLE_FILL_AREA(#105);
#95=SURFACE_STYLE_FILL_AREA(#106);
#96=SURFACE_STYLE_FILL_AREA(#107);
#97=SURFACE_STYLE_FILL_AREA(#108);
#98=SURFACE_STYLE_FILL_AREA(#109);
#99=SURFACE_STYLE_FILL_AREA(#110);
#100=SURFACE_STYLE_FILL_AREA(#111);
#101=SURFACE_STYLE_FILL_AREA(#112);
#102=FILL_AREA_STYLE('',(#113));
#103=FILL_AREA_STYLE('',(#114));
#104=FILL_AREA_STYLE('',(#115));
#105=FILL_AREA_STYLE('',(#116));
#106=FILL_AREA_STYLE('',(#117));
#107=FILL_AREA_STYLE('',(#118));
#108=FILL_AREA_STYLE('',(#119));
#109=FILL_AREA_STYLE('',(#120));
#110=FILL_AREA_STYLE('',(#121));
#111=FILL_AREA_STYLE('',(#122));
#112=FILL_AREA_STYLE('',(#123));
#113=FILL_AREA_STYLE_COLOUR('',#124);
#114=FILL_AREA_STYLE_COLOUR('',#40);
#115=FILL_AREA_STYLE_COLOUR('',#41);
#116=FILL_AREA_STYLE_COLOUR('',#41);
#117=FILL_AREA_STYLE_COLOUR('',#41);
#118=FILL_AREA_STYLE_COLOUR('',#41);
#119=FILL_AREA_STYLE_COLOUR('',#41);
#120=FILL_AREA_STYLE_COLOUR('',#41);
#121=FILL_AREA_STYLE_COLOUR('',#41);
#122=FILL_AREA_STYLE_COLOUR('',#41);
#123=FILL_AREA_STYLE_COLOUR('',#41);
#124=DRAUGHTING_PRE_DEFINED_COLOUR('yellow');
#125=MANIFOLD_SOLID_BREP('',#127);
#126=MANIFOLD_SOLID_BREP('',#128);
#127=CLOSED_SHELL('',(#129,#130));
#128=CLOSED_SHELL('',(#131,#132,#133,#134,#135,#136,#137,#138,#139));
#129=ADVANCED_FACE('',(#142,#143),#140,.F.);
#130=ADVANCED_FACE('',(#144,#145),#141,.F.);
#131=ADVANCED_FACE('',(#146,#147),#53,.T.);
#132=ADVANCED_FACE('',(#148,#149),#49,.T.);
#133=ADVANCED_FACE('',(#48),#47,.F.);
#134=ADVANCED_FACE('',(#150,#151),#50,.T.);
#135=ADVANCED_FACE('',(#152,#153),#45,.F.);
#136=ADVANCED_FACE('',(#154,#155),#42,.T.);
#137=ADVANCED_FACE('',(#156,#157),#54,.T.);
#138=ADVANCED_FACE('',(#158,#159),#51,.T.);
#139=ADVANCED_FACE('',(#160,#161),#52,.F.);
#140=(
BOUNDED_SURFACE()
B_SPLINE_SURFACE(3,3,((#296,#297,#298,#299,#300,#301,#302),(#303,#304,#305,
#306,#307,#308,#309),(#310,#311,#312,#313,#314,#315,#316),(#317,#318,#319,
#320,#321,#322,#323),(#324,#325,#326,#327,#328,#329,#330),(#331,#332,#333,
#334,#335,#336,#337),(#338,#339,#340,#341,#342,#343,#344)),
 .UNSPECIFIED.,.T.,.F.,.F.)
B_SPLINE_SURFACE_WITH_KNOTS((1,3,3,3,1),(4,3,4),(-0.5,0.,0.5,1.,1.5),(0.,
0.5,1.),.UNSPECIFIED.)
GEOMETRIC_REPRESENTATION_ITEM()
RATIONAL_B_SPLINE_SURFACE(((1.,0.59708024743416,0.59708024743416,1.,0.59708024743416,
0.59708024743416,1.),(0.333333333333334,0.19902674914472,0.19902674914472,
0.333333333333334,0.19902674914472,0.19902674914472,0.333333333333334),
(0.333333333333334,0.19902674914472,0.19902674914472,0.333333333333334,
0.19902674914472,0.19902674914472,0.333333333333334),(1.,0.59708024743416,
0.59708024743416,1.,0.59708024743416,0.59708024743416,1.),(0.333333333333334,
0.19902674914472,0.19902674914472,0.333333333333334,0.19902674914472,0.19902674914472,
0.333333333333334),(0.333333333333334,0.19902674914472,0.19902674914472,
0.333333333333334,0.19902674914472,0.19902674914472,0.333333333333334),
(1.,0.59708024743416,0.59708024743416,1.,0.59708024743416,0.59708024743416,
1.)))
REPRESENTATION_ITEM('')
SURFACE()
);
#141=(
BOUNDED_SURFACE()
B_SPLINE_SURFACE(3,3,((#345,#346,#347,#348),(#349,#350,#351,#352),(#353,
#354,#355,#356),(#357,#358,#359,#360),(#361,#362,#363,#364),(#365,#366,
#367,#368),(#369,#370,#371,#372)),.UNSPECIFIED.,.T.,.F.,.F.)
B_SPLINE_SURFACE_WITH_KNOTS((1,3,3,3,1),(4,4),(-0.5,0.,0.5,1.,1.5),(0.,
1.),.UNSPECIFIED.)
GEOMETRIC_REPRESENTATION_ITEM()
RATIONAL_B_SPLINE_SURFACE(((1.,0.791312695906874,0.791312695906874,1.),
(0.333333333333334,0.263770898635624,0.263770898635624,0.333333333333334),
(0.333333333333334,0.263770898635624,0.263770898635624,0.333333333333334),
(1.,0.791312695906874,0.791312695906874,1.),(0.333333333333334,0.263770898635624,
0.263770898635624,0.333333333333334),(0.333333333333334,0.263770898635624,
0.263770898635624,0.333333333333334),(1.,0.791312695906874,0.791312695906874,
1.)))
REPRESENTATION_ITEM('')
SURFACE()
);
#142=FACE_BOUND('',#162,.T.);
#143=FACE_BOUND('',#163,.T.);
#144=FACE_BOUND('',#164,.T.);
#145=FACE_BOUND('',#165,.T.);
#146=FACE_BOUND('',#166,.T.);
#147=FACE_BOUND('',#167,.T.);
#148=FACE_BOUND('',#168,.T.);
#149=FACE_BOUND('',#169,.T.);
#150=FACE_BOUND('',#171,.T.);
#151=FACE_BOUND('',#172,.T.);
#152=FACE_BOUND('',#173,.T.);
#153=FACE_BOUND('',#46,.T.);
#154=FACE_BOUND('',#174,.T.);
#155=FACE_BOUND('',#175,.T.);
#156=FACE_BOUND('',#176,.T.);
#157=FACE_BOUND('',#177,.T.);
#158=FACE_BOUND('',#178,.T.);
#159=FACE_BOUND('',#179,.T.);
#160=FACE_BOUND('',#180,.T.);
#161=FACE_BOUND('',#181,.T.);
#162=EDGE_LOOP('',(#182));
#163=EDGE_LOOP('',(#183));
#164=EDGE_LOOP('',(#184));
#165=EDGE_LOOP('',(#185));
#166=EDGE_LOOP('',(#186));
#167=EDGE_LOOP('',(#187));
#168=EDGE_LOOP('',(#188));
#169=EDGE_LOOP('',(#189));
#170=EDGE_LOOP('',(#190));
#171=EDGE_LOOP('',(#191));
#172=EDGE_LOOP('',(#192));
#173=EDGE_LOOP('',(#193));
#174=EDGE_LOOP('',(#194));
#175=EDGE_LOOP('',(#195));
#176=EDGE_LOOP('',(#196));
#177=EDGE_LOOP('',(#197));
#178=EDGE_LOOP('',(#198));
#179=EDGE_LOOP('',(#199));
#180=EDGE_LOOP('',(#200));
#181=EDGE_LOOP('',(#201));
#182=ORIENTED_EDGE('',*,*,#213,.T.);
#183=ORIENTED_EDGE('',*,*,#214,.F.);
#184=ORIENTED_EDGE('',*,*,#214,.T.);
#185=ORIENTED_EDGE('',*,*,#213,.F.);
#186=ORIENTED_EDGE('',*,*,#215,.T.);
#187=ORIENTED_EDGE('',*,*,#216,.F.);
#188=ORIENTED_EDGE('',*,*,#215,.F.);
#189=ORIENTED_EDGE('',*,*,#217,.T.);
#190=ORIENTED_EDGE('',*,*,#217,.F.);
#191=ORIENTED_EDGE('',*,*,#218,.F.);
#192=ORIENTED_EDGE('',*,*,#216,.T.);
#193=ORIENTED_EDGE('',*,*,#219,.T.);
#194=ORIENTED_EDGE('',*,*,#219,.F.);
#195=ORIENTED_EDGE('',*,*,#220,.T.);
#196=ORIENTED_EDGE('',*,*,#220,.F.);
#197=ORIENTED_EDGE('',*,*,#221,.T.);
#198=ORIENTED_EDGE('',*,*,#221,.F.);
#199=ORIENTED_EDGE('',*,*,#222,.T.);
#200=ORIENTED_EDGE('',*,*,#222,.F.);
#201=ORIENTED_EDGE('',*,*,#218,.T.);
#202=VERTEX_POINT('',#293);
#203=VERTEX_POINT('',#295);
#204=VERTEX_POINT('',#374);
#205=VERTEX_POINT('',#376);
#206=VERTEX_POINT('',#379);
#207=VERTEX_POINT('',#383);
#208=VERTEX_POINT('',#386);
#209=VERTEX_POINT('',#387);
#210=VERTEX_POINT('',#390);
#211=VERTEX_POINT('',#461);
#212=VERTEX_POINT('',#464);
#213=EDGE_CURVE('',#202,#202,#223,.T.);
#214=EDGE_CURVE('',#203,#203,#224,.T.);
#215=EDGE_CURVE('',#204,#204,#225,.T.);
#216=EDGE_CURVE('',#205,#205,#226,.T.);
#217=EDGE_CURVE('',#206,#206,#227,.T.);
#218=EDGE_CURVE('',#207,#207,#228,.T.);
#219=EDGE_CURVE('',#208,#208,#229,.T.);
#220=EDGE_CURVE('',#210,#210,#230,.T.);
#221=EDGE_CURVE('',#211,#211,#231,.T.);
#222=EDGE_CURVE('',#212,#212,#232,.T.);
#223=CIRCLE('',#234,6.);
#224=CIRCLE('',#235,6.);
#225=CIRCLE('',#236,21.);
#226=CIRCLE('',#237,21.);
#227=CIRCLE('',#239,19.5);
#228=CIRCLE('',#242,20.9545454545454);
#229=CIRCLE('',#244,16.3828353866601);
#230=CIRCLE('',#246,24.);
#231=CIRCLE('',#247,24.);
#232=CIRCLE('',#249,23.6818181818182);
#233=AXIS2_PLACEMENT_3D('',#291,#252,#253);
#234=AXIS2_PLACEMENT_3D('',#292,#254,#255);
#235=AXIS2_PLACEMENT_3D('',#294,#256,#257);
#236=AXIS2_PLACEMENT_3D('',#373,#258,#259);
#237=AXIS2_PLACEMENT_3D('',#375,#260,#261);
#238=AXIS2_PLACEMENT_3D('',#377,#262,#263);
#239=AXIS2_PLACEMENT_3D('',#378,#264,#265);
#240=AXIS2_PLACEMENT_3D('',#380,#266,#267);
#241=AXIS2_PLACEMENT_3D('',#381,#268,#269);
#242=AXIS2_PLACEMENT_3D('',#382,#270,#271);
#243=AXIS2_PLACEMENT_3D('',#384,#272,#273);
#244=AXIS2_PLACEMENT_3D('',#385,#274,#275);
#245=AXIS2_PLACEMENT_3D('',#388,#276,#277);
#246=AXIS2_PLACEMENT_3D('',#389,#278,#279);
#247=AXIS2_PLACEMENT_3D('',#460,#281,#282);
#248=AXIS2_PLACEMENT_3D('',#462,#283,#284);
#249=AXIS2_PLACEMENT_3D('',#463,#285,#286);
#250=AXIS2_PLACEMENT_3D('',#465,#287,#288);
#251=AXIS2_PLACEMENT_3D('',#466,#289,#290);
#252=DIRECTION('',(0.,0.,1.));
#253=DIRECTION('',(1.,0.,0.));
#254=DIRECTION('',(0.121869343405147,0.992066503116081,0.0308531446213912));
#255=DIRECTION('',(0.992489739031157,-0.12213494029687,0.0068683532630006));
#256=DIRECTION('',(0.121869343405147,-0.0865060970576294,0.988769213876451));
#257=DIRECTION('',(0.992489739031157,0.,-0.122327911442424));
#258=DIRECTION('',(-1.,0.,0.));
#259=DIRECTION('',(0.,0.,1.));
#260=DIRECTION('',(-1.,0.,0.));
#261=DIRECTION('',(0.,0.,1.));
#262=DIRECTION('',(-1.,0.,0.));
#263=DIRECTION('',(0.,0.,1.));
#264=DIRECTION('',(-1.,0.,0.));
#265=DIRECTION('',(0.,0.,1.));
#266=DIRECTION('',(-1.,0.,0.));
#267=DIRECTION('',(0.,0.,1.));
#268=DIRECTION('',(-1.,0.,0.));
#269=DIRECTION('',(0.,0.,1.));
#270=DIRECTION('',(-1.,0.,0.));
#271=DIRECTION('',(0.,0.,1.));
#272=DIRECTION('',(-1.,0.,0.));
#273=DIRECTION('',(0.,0.,1.));
#274=DIRECTION('',(-1.,0.,0.));
#275=DIRECTION('',(0.,0.,1.));
#276=DIRECTION('',(-1.,0.,0.));
#277=DIRECTION('',(5.49189503643068E-18,0.,1.));
#278=DIRECTION('',(-1.,0.,0.));
#279=DIRECTION('',(0.,0.,1.));
#280=DIRECTION('',(-1.,0.,0.));
#281=DIRECTION('',(-1.,0.,0.));
#282=DIRECTION('',(0.,0.,1.));
#283=DIRECTION('',(-1.,0.,0.));
#284=DIRECTION('',(0.,0.,1.));
#285=DIRECTION('',(-1.,0.,0.));
#286=DIRECTION('',(0.,0.,1.));
#287=DIRECTION('',(-1.,0.,0.));
#288=DIRECTION('',(0.,0.,1.));
#289=DIRECTION('',(-1.,0.,0.));
#290=DIRECTION('',(0.,0.,1.));
#291=CARTESIAN_POINT('',(0.,0.,0.));
#292=CARTESIAN_POINT('',(5.95527690984794,0.395241531006579,20.0019643522145));
#293=CARTESIAN_POINT('',(11.9102153440349,-0.337568110774642,20.0431744717925));
#294=CARTESIAN_POINT('',(5.95527690984794,-19.9926030911442,-0.728433562560782));
#295=CARTESIAN_POINT('',(11.9102153440349,-19.9926030911442,-1.46240103121532));
#296=CARTESIAN_POINT('',(11.9102153440349,-19.9926030911442,-1.46240103121532));
#297=CARTESIAN_POINT('',(11.9102153440349,-18.4929835869163,-21.9638208851448));
#298=CARTESIAN_POINT('',(11.9102153440349,0.929090203304403,-28.697328468253));
#299=CARTESIAN_POINT('',(11.9102153440349,14.7970067819044,-13.5237341526814));
#300=CARTESIAN_POINT('',(11.9102153440349,28.6649233605043,1.64986016289019));
#301=CARTESIAN_POINT('',(11.9102153440349,20.2157101781239,20.3893337756479));
#302=CARTESIAN_POINT('',(11.9102153440349,-0.337568110774639,20.0431744717925));
#303=CARTESIAN_POINT('',(12.037200666196,-8.03758723566541,-0.432124066895357));
#304=CARTESIAN_POINT('',(12.037200666196,-7.59446550289149,-8.67426991352363));
#305=CARTESIAN_POINT('',(12.037200666196,0.150545723317731,-11.5280614498909));
#306=CARTESIAN_POINT('',(12.037200666196,5.83559242231062,-5.54395173687441));
#307=CARTESIAN_POINT('',(12.037200666196,11.5206391213035,0.440157976142089));
#308=CARTESIAN_POINT('',(12.037200666196,8.27386846522967,8.02882092385602));
#309=CARTESIAN_POINT('',(12.037200666196,0.0198445422390217,8.049170514672));
#310=CARTESIAN_POINT('',(0.127323797822134,-8.03758723566541,1.03581087041373));
#311=CARTESIAN_POINT('',(0.127323797822134,-9.09975975251102,-7.20633497621454));
#312=CARTESIAN_POINT('',(0.127323797822134,-1.95027359602812,-11.4426100275885));
#313=CARTESIAN_POINT('',(0.127323797822134,4.76886365435431,-6.55237759720677));
#314=CARTESIAN_POINT('',(0.127323797822134,11.4880009047368,-1.66214516682508));
#315=CARTESIAN_POINT('',(0.127323797822134,9.6549698938787,6.44348102279571));
#316=CARTESIAN_POINT('',(0.127323797822134,1.48546382580147,7.966750275516));
#317=CARTESIAN_POINT('',(0.000338475660987929,-19.9926030911442,0.00553390609376106));
#318=CARTESIAN_POINT('',(0.000338475660987929,-19.9982778365359,-20.4958859478357));
#319=CARTESIAN_POINT('',(0.000338475660987929,-1.17172911604145,-28.6118770459505));
#320=CARTESIAN_POINT('',(0.000338475660987929,13.7302780139481,-14.5321600130138));
#321=CARTESIAN_POINT('',(0.000338475660987929,28.6322851439376,-0.45244298007698));
#322=CARTESIAN_POINT('',(0.000338475660987929,21.5968116067729,18.8039938745876));
#323=CARTESIAN_POINT('',(0.000338475660987929,1.1280511727878,19.9607542326365));
#324=CARTESIAN_POINT('',(-0.126646846500158,-31.9476189466228,-1.02474305822621));
#325=CARTESIAN_POINT('',(-0.126646846500158,-30.8967959205607,-33.7854369194569));
#326=CARTESIAN_POINT('',(-0.126646846500158,-0.393184636054776,-45.7811440643126));
#327=CARTESIAN_POINT('',(-0.126646846500158,22.6916923735419,-22.5119424288207));
#328=CARTESIAN_POINT('',(-0.126646846500158,45.7765693831385,0.757259206671117));
#329=CARTESIAN_POINT('',(-0.126646846500158,33.5386533196672,31.1645067263795));
#330=CARTESIAN_POINT('',(-0.126646846500158,0.770638519774144,31.9547581897569));
#331=CARTESIAN_POINT('',(11.7832300218737,-31.9476189466228,-2.49267799553529));
#332=CARTESIAN_POINT('',(11.7832300218737,-29.3915016709412,-35.253371856766));
#333=CARTESIAN_POINT('',(11.7832300218737,1.70763468329108,-45.8665954866151));
#334=CARTESIAN_POINT('',(11.7832300218737,23.7584211414981,-21.5035165684884));
#335=CARTESIAN_POINT('',(11.7832300218737,45.8092075997052,2.85956234963829));
#336=CARTESIAN_POINT('',(11.7832300218737,32.1575518910182,32.7498466274398));
#337=CARTESIAN_POINT('',(11.7832300218737,-0.694980763788301,32.0371784289129));
#338=CARTESIAN_POINT('',(11.9102153440349,-19.9926030911442,-1.46240103121532));
#339=CARTESIAN_POINT('',(11.9102153440349,-18.4929835869163,-21.9638208851448));
#340=CARTESIAN_POINT('',(11.9102153440349,0.929090203304403,-28.697328468253));
#341=CARTESIAN_POINT('',(11.9102153440349,14.7970067819044,-13.5237341526814));
#342=CARTESIAN_POINT('',(11.9102153440349,28.6649233605043,1.64986016289019));
#343=CARTESIAN_POINT('',(11.9102153440349,20.2157101781239,20.3893337756479));
#344=CARTESIAN_POINT('',(11.9102153440349,-0.337568110774639,20.0431744717925));
#345=CARTESIAN_POINT('',(11.9102153440349,-0.337568110774642,20.0431744717925));
#346=CARTESIAN_POINT('',(11.9102153440349,-12.6084087152091,19.8365083827313));
#347=CARTESIAN_POINT('',(11.9102153440349,-20.8879148582027,10.7774787415427));
#348=CARTESIAN_POINT('',(11.9102153440349,-19.9926030911442,-1.46240103121532));
#349=CARTESIAN_POINT('',(12.037200666196,0.0198445422390209,8.049170514672));
#350=CARTESIAN_POINT('',(12.037200666196,-4.90802197523586,8.06131974856835));
#351=CARTESIAN_POINT('',(12.037200666196,-8.30214241147729,4.48865093069247));
#352=CARTESIAN_POINT('',(12.037200666196,-8.03758723566541,-0.432124066895357));
#353=CARTESIAN_POINT('',(0.127323797822134,1.48546382580147,7.966750275516));
#354=CARTESIAN_POINT('',(0.127323797822134,-3.39194333860606,8.87618155626028));
#355=CARTESIAN_POINT('',(0.127323797822134,-7.40344267413028,5.95658586800155));
#356=CARTESIAN_POINT('',(0.127323797822134,-8.03758723566541,1.03581087041373));
#357=CARTESIAN_POINT('',(0.000338475660987929,1.1280511727878,19.9607542326365));
#358=CARTESIAN_POINT('',(0.000338475660987929,-11.0923300785793,20.6513701904233));
#359=CARTESIAN_POINT('',(0.000338475660987929,-19.9892151208557,12.2454136788518));
#360=CARTESIAN_POINT('',(0.000338475660987929,-19.9926030911442,0.00553390609376019));
#361=CARTESIAN_POINT('',(-0.126646846500158,0.770638519774138,31.9547581897569));
#362=CARTESIAN_POINT('',(-0.126646846500158,-18.7927168185525,32.4265588245863));
#363=CARTESIAN_POINT('',(-0.126646846500158,-32.5749875675811,18.534241489702));
#364=CARTESIAN_POINT('',(-0.126646846500158,-31.9476189466228,-1.02474305822621));
#365=CARTESIAN_POINT('',(11.7832300218737,-0.694980763788306,32.0371784289129));
#366=CARTESIAN_POINT('',(11.7832300218738,-20.3087954551823,31.6116970168943));
#367=CARTESIAN_POINT('',(11.7832300218738,-33.4736873049282,17.0663065523929));
#368=CARTESIAN_POINT('',(11.7832300218737,-31.9476189466228,-2.49267799553529));
#369=CARTESIAN_POINT('',(11.9102153440349,-0.337568110774642,20.0431744717925));
#370=CARTESIAN_POINT('',(11.9102153440349,-12.6084087152091,19.8365083827313));
#371=CARTESIAN_POINT('',(11.9102153440349,-20.8879148582027,10.7774787415427));
#372=CARTESIAN_POINT('',(11.9102153440349,-19.9926030911442,-1.46240103121532));
#373=CARTESIAN_POINT('',(48.5,0.,0.));
#374=CARTESIAN_POINT('',(48.5,0.,21.));
#375=CARTESIAN_POINT('',(42.,0.,0.));
#376=CARTESIAN_POINT('',(42.,0.,21.));
#377=CARTESIAN_POINT('',(0.,0.,0.));
#378=CARTESIAN_POINT('',(50.,0.,0.));
#379=CARTESIAN_POINT('',(50.,0.,19.5));
#380=CARTESIAN_POINT('',(48.5,0.,0.));
#381=CARTESIAN_POINT('',(50.,12.,0.));
#382=CARTESIAN_POINT('',(41.3273341551387,0.,0.));
#383=CARTESIAN_POINT('',(41.3273341551387,0.,20.9545454545454));
#384=CARTESIAN_POINT('',(42.,0.,0.));
#385=CARTESIAN_POINT('',(2.99999999996768,0.,0.));
#386=CARTESIAN_POINT('',(2.99999999996768,0.,16.3828353866601));
#387=CARTESIAN_POINT('',(8.96286443365577,0.,0.));
#388=CARTESIAN_POINT('',(2.99999999996768,0.,0.));
#389=CARTESIAN_POINT('',(8.16053956245683,0.,0.));
#390=CARTESIAN_POINT('',(8.16053956245683,0.,24.));
#391=CARTESIAN_POINT('',(0.782115253486731,20.4789267796716,0.));
#392=CARTESIAN_POINT('',(0.788582061566823,19.8754422799299,0.));
#393=CARTESIAN_POINT('',(0.821671530208607,19.5762582306284,0.));
#394=CARTESIAN_POINT('',(0.947919656957899,18.9866340078361,0.));
#395=CARTESIAN_POINT('',(1.03953024585825,18.7028617913442,0.));
#396=CARTESIAN_POINT('',(1.27852843958819,18.156933627195,0.));
#397=CARTESIAN_POINT('',(1.42817714392337,17.8921129547488,0.));
#398=CARTESIAN_POINT('',(1.774118671918,17.4050170023998,0.));
#399=CARTESIAN_POINT('',(1.97024204177011,17.1812485440064,0.));
#400=CARTESIAN_POINT('',(2.29950174573916,16.8755605028018,0.));
#401=CARTESIAN_POINT('',(2.41579389514424,16.7782801942422,0.));
#402=CARTESIAN_POINT('',(2.65527582804425,16.5980999032401,0.));
#403=CARTESIAN_POINT('',(2.77884836227635,16.5147384809426,0.));
#404=CARTESIAN_POINT('',(3.16073523750857,16.2842688855246,0.));
#405=CARTESIAN_POINT('',(3.43036777562882,16.1564990242215,0.));
#406=CARTESIAN_POINT('',(3.99904036674863,15.9547751787937,0.));
#407=CARTESIAN_POINT('',(4.28847271877846,15.8841564210778,0.));
#408=CARTESIAN_POINT('',(4.87686187633846,15.7994429297473,0.));
#409=CARTESIAN_POINT('',(5.17887243746539,15.785611761427,0.));
#410=CARTESIAN_POINT('',(5.77753589471433,15.816079850137,0.));
#411=CARTESIAN_POINT('',(6.07176161137214,15.8595770397836,0.));
#412=CARTESIAN_POINT('',(6.65036295024597,16.0010943328822,0.));
#413=CARTESIAN_POINT('',(6.93738159706807,16.1006493387259,0.));
#414=CARTESIAN_POINT('',(7.48082141255446,16.3483372798157,0.));
#415=CARTESIAN_POINT('',(7.73891331586791,16.496294096105,0.));
#416=CARTESIAN_POINT('',(8.22766821950815,16.8407393321231,0.));
#417=CARTESIAN_POINT('',(8.45817646043671,17.0380908242481,0.));
#418=CARTESIAN_POINT('',(8.87213322993825,17.466539644521,0.));
#419=CARTESIAN_POINT('',(9.05829981339542,17.6992930430738,0.));
#420=CARTESIAN_POINT('',(9.38697370794562,18.2036701974581,0.));
#421=CARTESIAN_POINT('',(9.52550682092016,18.4696758293109,0.));
#422=CARTESIAN_POINT('',(9.74810985632347,19.021912368941,0.));
#423=CARTESIAN_POINT('',(9.83338189676178,19.3123265179837,0.));
#424=CARTESIAN_POINT('',(9.94374216513489,19.9014513932727,0.));
#425=CARTESIAN_POINT('',(9.96916268765824,20.1980344704076,0.));
#426=CARTESIAN_POINT('',(9.9604236042,20.7952460390419,0.));
#427=CARTESIAN_POINT('',(9.92524959510941,21.0973867182685,0.));
#428=CARTESIAN_POINT('',(9.79677017856003,21.6792216790433,0.));
#429=CARTESIAN_POINT('',(9.7037633340716,21.9622292498381,0.));
#430=CARTESIAN_POINT('',(9.45834070003748,22.5119091058819,0.));
#431=CARTESIAN_POINT('',(9.30852830965755,22.7719493762885,0.));
#432=CARTESIAN_POINT('',(8.96151535888473,23.2552197800091,0.));
#433=CARTESIAN_POINT('',(8.76127045310735,23.4819913116432,0.));
#434=CARTESIAN_POINT('',(8.32096577901179,23.8888513175877,0.));
#435=CARTESIAN_POINT('',(8.08329136363474,24.0677276374025,0.));
#436=CARTESIAN_POINT('',(7.57374028601891,24.3775526786654,0.));
#437=CARTESIAN_POINT('',(7.29925407764628,24.5089012244077,0.));
#438=CARTESIAN_POINT('',(6.73871698399029,24.7118314701302,0.));
#439=CARTESIAN_POINT('',(6.45048971896673,24.7852657006312,0.));
#440=CARTESIAN_POINT('',(5.85801677721505,24.8757167382193,0.));
#441=CARTESIAN_POINT('',(5.55596596107173,24.8916942485915,0.));
#442=CARTESIAN_POINT('',(4.96174443794769,24.8658538935426,0.));
#443=CARTESIAN_POINT('',(4.66645507315857,24.8245841607335,0.));
#444=CARTESIAN_POINT('',(4.07988930952073,24.683352183448,0.));
#445=CARTESIAN_POINT('',(3.79820819604381,24.5857105108414,0.));
#446=CARTESIAN_POINT('',(3.25696022650098,24.3389132141111,0.));
#447=CARTESIAN_POINT('',(2.99501195241817,24.1879463395352,0.));
#448=CARTESIAN_POINT('',(2.50680857563924,23.8401610072421,0.));
#449=CARTESIAN_POINT('',(2.28203272048291,23.6451961975649,0.));
#450=CARTESIAN_POINT('',(1.8705123072448,23.213798718018,0.));
#451=CARTESIAN_POINT('',(1.68259712135563,22.9748305062335,0.));
#452=CARTESIAN_POINT('',(1.36037150881024,22.4725867247576,0.));
#453=CARTESIAN_POINT('',(1.22415747961172,22.2080278806946,0.));
#454=CARTESIAN_POINT('',(1.00246508368139,21.6515300233966,0.));
#455=CARTESIAN_POINT('',(0.918217751483454,21.3607258441669,0.));
#456=CARTESIAN_POINT('',(0.808694075449188,20.775878779465,0.));
#457=CARTESIAN_POINT('',(0.782115253486731,20.4789267796716,0.));
#458=CARTESIAN_POINT('',(0.788582061566823,19.8754422799299,0.));
#459=CARTESIAN_POINT('',(0.,0.,0.));
#460=CARTESIAN_POINT('',(15.2939411302179,0.,0.));
#461=CARTESIAN_POINT('',(15.2939411302179,0.,24.));
#462=CARTESIAN_POINT('',(0.,0.,0.));
#463=CARTESIAN_POINT('',(17.0490988189731,0.,0.));
#464=CARTESIAN_POINT('',(17.0490988189731,0.,23.6818181818182));
#465=CARTESIAN_POINT('',(15.2939411302179,0.,0.));
#466=CARTESIAN_POINT('',(34.6006757065257,0.,0.));
#467=(
GEOMETRIC_REPRESENTATION_CONTEXT(3)
GLOBAL_UNCERTAINTY_ASSIGNED_CONTEXT((#468))
GLOBAL_UNIT_ASSIGNED_CONTEXT((#474,#470,#469))
REPRESENTATION_CONTEXT('model1','TOP_LEVEL_ASSEMBLY_PART')
);
#468=UNCERTAINTY_MEASURE_WITH_UNIT(LENGTH_MEASURE(2.E-5),#474,
'DISTANCE_ACCURACY_VALUE','Maximum Tolerance applied to model');
#469=(
NAMED_UNIT(*)
SI_UNIT($,.STERADIAN.)
SOLID_ANGLE_UNIT()
);
#470=(
CONVERSION_BASED_UNIT('DEGREE',#472)
NAMED_UNIT(#471)
PLANE_ANGLE_UNIT()
);
#471=DIMENSIONAL_EXPONENTS(0.,0.,0.,0.,0.,0.,0.);
#472=PLANE_ANGLE_MEASURE_WITH_UNIT(PLANE_ANGLE_MEASURE(0.0174532925),#473);
#473=(
NAMED_UNIT(*)
PLANE_ANGLE_UNIT()
SI_UNIT($,.RADIAN.)
);
#474=(
LENGTH_UNIT()
NAMED_UNIT(*)
SI_UNIT(.MILLI.,.METRE.)
);
ENDSEC;
END-ISO-10303-21;
