ISO-10303-21;
HEADER;
/* Generated by software containing ST-Developer
 * from STEP Tools, Inc. (www.steptools.com) 
 */
/* OPTION: using custom schema-name function */

FILE_DESCRIPTION(
/* description */ (''),
/* implementation_level */ '2;1');

FILE_NAME(
/* name */ 'ATUM-17XD4-SO-050204-light.stp',
/* time_stamp */ '2023-10-31T17:27:40+03:00',
/* author */ (''),
/* organization */ (''),
/* preprocessor_version */ 'ST-DEVELOPER v19.4',
/* originating_system */ 'SIEMENS PLM Software NX2306.3001',
/* authorisation */ '');

FILE_SCHEMA (('AUTOMOTIVE_DESIGN { 1 0 10303 214 3 1 1 1 }'));
ENDSEC;

DATA;
#10=SHAPE_REPRESENTATION_RELATIONSHIP('None',
'relationship between STP_ATUM 14.5XD4 SO.. 050204-None and STP_ATUM 1
4.5XD4 SO.. 050204-None',#22,#11);
#11=ADVANCED_BREP_SHAPE_REPRESENTATION(
'STP_ATUM 14.5XD4 SO.. 050204-None',(#76,#77),#737);
#12=SHAPE_DEFINITION_REPRESENTATION(#13,#22);
#13=PRODUCT_DEFINITION_SHAPE('','',#14);
#14=PRODUCT_DEFINITION(' ','',#16,#15);
#15=PRODUCT_DEFINITION_CONTEXT('part definition',#21,'design');
#16=PRODUCT_DEFINITION_FORMATION_WITH_SPECIFIED_SOURCE(' ',' ',#18,
 .NOT_KNOWN.);
#17=PRODUCT_RELATED_PRODUCT_CATEGORY('part','',(#18));
#18=PRODUCT('STP_ATUM 14.5XD4 SO.. 050204',
'STP_ATUM 14.5XD4 SO.. 050204',' ',(#19));
#19=PRODUCT_CONTEXT(' ',#21,'mechanical');
#20=APPLICATION_PROTOCOL_DEFINITION('international standard',
'automotive_design',2010,#21);
#21=APPLICATION_CONTEXT(
'core data for automotive mechanical design processes');
#22=SHAPE_REPRESENTATION('STP_ATUM 14.5XD4 SO.. 050204-None',(#429),#737);
#23=DRAUGHTING_PRE_DEFINED_COLOUR('yellow');
#24=SURFACE_OF_REVOLUTION('',#46,#35);
#25=SURFACE_OF_REVOLUTION('',#47,#36);
#26=SURFACE_OF_REVOLUTION('',#420,#37);
#27=SURFACE_OF_REVOLUTION('',#48,#38);
#28=SURFACE_OF_REVOLUTION('',#422,#39);
#29=SURFACE_OF_REVOLUTION('',#49,#40);
#30=SURFACE_OF_REVOLUTION('',#50,#41);
#31=SURFACE_OF_REVOLUTION('',#425,#42);
#32=SURFACE_OF_REVOLUTION('',#51,#43);
#33=SURFACE_OF_REVOLUTION('',#428,#44);
#34=SURFACE_OF_REVOLUTION('',#52,#45);
#35=AXIS1_PLACEMENT('',#700,#586);
#36=AXIS1_PLACEMENT('',#706,#592);
#37=AXIS1_PLACEMENT('',#710,#597);
#38=AXIS1_PLACEMENT('',#714,#601);
#39=AXIS1_PLACEMENT('',#716,#604);
#40=AXIS1_PLACEMENT('',#720,#608);
#41=AXIS1_PLACEMENT('',#722,#610);
#42=AXIS1_PLACEMENT('',#726,#615);
#43=AXIS1_PLACEMENT('',#730,#619);
#44=AXIS1_PLACEMENT('',#734,#624);
#45=AXIS1_PLACEMENT('',#736,#626);
#46=LINE('',#699,#53);
#47=LINE('',#705,#54);
#48=LINE('',#713,#55);
#49=LINE('',#719,#56);
#50=LINE('',#721,#57);
#51=LINE('',#729,#58);
#52=LINE('',#735,#59);
#53=VECTOR('',#585,3.22367000469751);
#54=VECTOR('',#591,4.06775268017694);
#55=VECTOR('',#600,4.60000000000001);
#56=VECTOR('',#607,3.38523840538528);
#57=VECTOR('',#609,3.35097332896175);
#58=VECTOR('',#618,0.154642535280522);
#59=VECTOR('',#625,0.871421886590761);
#60=PRESENTATION_LAYER_ASSIGNMENT('1','Layer 1',(#76,#77));
#61=STYLED_ITEM('',(#63),#76);
#62=STYLED_ITEM('',(#64),#77);
#63=PRESENTATION_STYLE_ASSIGNMENT((#65));
#64=PRESENTATION_STYLE_ASSIGNMENT((#66));
#65=SURFACE_STYLE_USAGE(.BOTH.,#67);
#66=SURFACE_STYLE_USAGE(.BOTH.,#68);
#67=SURFACE_SIDE_STYLE('',(#69));
#68=SURFACE_SIDE_STYLE('',(#70));
#69=SURFACE_STYLE_FILL_AREA(#71);
#70=SURFACE_STYLE_FILL_AREA(#72);
#71=FILL_AREA_STYLE('',(#73));
#72=FILL_AREA_STYLE('',(#74));
#73=FILL_AREA_STYLE_COLOUR('',#75);
#74=FILL_AREA_STYLE_COLOUR('',#23);
#75=COLOUR_RGB('smoke gray',0.694117647058824,0.694117647058824,0.694117647058824);
#76=MANIFOLD_SOLID_BREP('',#78);
#77=MANIFOLD_SOLID_BREP('',#79);
#78=CLOSED_SHELL('',(#99,#100,#101,#102,#103,#104,#105,#106,#107,#108,#109,
#110,#111,#112,#113,#114,#115,#116,#117,#118,#119));
#79=CLOSED_SHELL('',(#120,#121,#122,#123,#124,#125,#126,#127,#128,#129,
#130,#131,#132));
#80=FACE_OUTER_BOUND('',#225,.T.);
#81=FACE_OUTER_BOUND('',#240,.T.);
#82=FACE_OUTER_BOUND('',#241,.T.);
#83=FACE_OUTER_BOUND('',#242,.T.);
#84=PLANE('',#452);
#85=PLANE('',#455);
#86=PLANE('',#470);
#87=PLANE('',#472);
#88=PLANE('',#474);
#89=CONICAL_SURFACE('',#438,12.3103073792141,20.);
#90=CONICAL_SURFACE('',#442,12.5,15.0000000000002);
#91=CONICAL_SURFACE('',#450,12.705669240384,82.0000000000011);
#92=CONICAL_SURFACE('',#461,16.4,36.8698976458439);
#93=CONICAL_SURFACE('',#467,8.,3.00000000000004);
#94=CYLINDRICAL_SURFACE('',#434,12.2500000000002);
#95=CYLINDRICAL_SURFACE('',#440,12.5);
#96=CYLINDRICAL_SURFACE('',#446,12.25);
#97=CYLINDRICAL_SURFACE('',#457,17.);
#98=CYLINDRICAL_SURFACE('',#465,8.);
#99=ADVANCED_FACE('',(#141,#142),#133,.T.);
#100=ADVANCED_FACE('',(#143,#144),#94,.T.);
#101=ADVANCED_FACE('',(#145,#146),#134,.F.);
#102=ADVANCED_FACE('',(#147,#148),#89,.T.);
#103=ADVANCED_FACE('',(#149,#150),#95,.T.);
#104=ADVANCED_FACE('',(#151,#152),#90,.T.);
#105=ADVANCED_FACE('',(#153,#154),#135,.F.);
#106=ADVANCED_FACE('',(#155,#156),#96,.T.);
#107=ADVANCED_FACE('',(#157,#158),#136,.F.);
#108=ADVANCED_FACE('',(#159,#160),#91,.F.);
#109=ADVANCED_FACE('',(#161,#162),#84,.F.);
#110=ADVANCED_FACE('',(#163,#164),#137,.T.);
#111=ADVANCED_FACE('',(#80),#85,.F.);
#112=ADVANCED_FACE('',(#165,#166),#97,.T.);
#113=ADVANCED_FACE('',(#167,#168),#138,.T.);
#114=ADVANCED_FACE('',(#169,#170),#92,.T.);
#115=ADVANCED_FACE('',(#171,#172),#139,.F.);
#116=ADVANCED_FACE('',(#173,#174),#98,.T.);
#117=ADVANCED_FACE('',(#175,#176),#93,.T.);
#118=ADVANCED_FACE('',(#177,#178),#140,.T.);
#119=ADVANCED_FACE('',(#81),#86,.F.);
#120=ADVANCED_FACE('',(#82),#87,.F.);
#121=ADVANCED_FACE('',(#83),#88,.T.);
#122=ADVANCED_FACE('',(#179,#180),#24,.T.);
#123=ADVANCED_FACE('',(#181,#182),#25,.T.);
#124=ADVANCED_FACE('',(#183,#184),#26,.T.);
#125=ADVANCED_FACE('',(#185,#186),#27,.T.);
#126=ADVANCED_FACE('',(#187,#188),#28,.T.);
#127=ADVANCED_FACE('',(#189,#190),#29,.T.);
#128=ADVANCED_FACE('',(#191,#192),#30,.T.);
#129=ADVANCED_FACE('',(#193,#194),#31,.T.);
#130=ADVANCED_FACE('',(#195,#196),#32,.T.);
#131=ADVANCED_FACE('',(#197,#198),#33,.T.);
#132=ADVANCED_FACE('',(#199,#200),#34,.T.);
#133=TOROIDAL_SURFACE('',#432,11.2500000000005,1.);
#134=TOROIDAL_SURFACE('',#436,13.25,0.999999999999996);
#135=TOROIDAL_SURFACE('',#444,12.65,0.399999999999997);
#136=TOROIDAL_SURFACE('',#448,12.65,0.399999999999986);
#137=TOROIDAL_SURFACE('',#454,16.3,0.799999999999997);
#138=TOROIDAL_SURFACE('',#459,14.,3.);
#139=TOROIDAL_SURFACE('',#463,13.,5.);
#140=TOROIDAL_SURFACE('',#469,6.81782081547559,0.999999999999999);
#141=FACE_BOUND('',#201,.T.);
#142=FACE_BOUND('',#202,.T.);
#143=FACE_BOUND('',#203,.T.);
#144=FACE_BOUND('',#204,.T.);
#145=FACE_BOUND('',#205,.T.);
#146=FACE_BOUND('',#206,.T.);
#147=FACE_BOUND('',#207,.T.);
#148=FACE_BOUND('',#208,.T.);
#149=FACE_BOUND('',#209,.T.);
#150=FACE_BOUND('',#210,.T.);
#151=FACE_BOUND('',#211,.T.);
#152=FACE_BOUND('',#212,.T.);
#153=FACE_BOUND('',#213,.T.);
#154=FACE_BOUND('',#214,.T.);
#155=FACE_BOUND('',#215,.T.);
#156=FACE_BOUND('',#216,.T.);
#157=FACE_BOUND('',#217,.T.);
#158=FACE_BOUND('',#218,.T.);
#159=FACE_BOUND('',#219,.T.);
#160=FACE_BOUND('',#220,.T.);
#161=FACE_BOUND('',#221,.T.);
#162=FACE_BOUND('',#222,.T.);
#163=FACE_BOUND('',#223,.T.);
#164=FACE_BOUND('',#224,.T.);
#165=FACE_BOUND('',#226,.T.);
#166=FACE_BOUND('',#227,.T.);
#167=FACE_BOUND('',#228,.T.);
#168=FACE_BOUND('',#229,.T.);
#169=FACE_BOUND('',#230,.T.);
#170=FACE_BOUND('',#231,.T.);
#171=FACE_BOUND('',#232,.T.);
#172=FACE_BOUND('',#233,.T.);
#173=FACE_BOUND('',#234,.T.);
#174=FACE_BOUND('',#235,.T.);
#175=FACE_BOUND('',#236,.T.);
#176=FACE_BOUND('',#237,.T.);
#177=FACE_BOUND('',#238,.T.);
#178=FACE_BOUND('',#239,.T.);
#179=FACE_BOUND('',#243,.T.);
#180=FACE_BOUND('',#244,.T.);
#181=FACE_BOUND('',#245,.T.);
#182=FACE_BOUND('',#246,.T.);
#183=FACE_BOUND('',#247,.T.);
#184=FACE_BOUND('',#248,.T.);
#185=FACE_BOUND('',#249,.T.);
#186=FACE_BOUND('',#250,.T.);
#187=FACE_BOUND('',#251,.T.);
#188=FACE_BOUND('',#252,.T.);
#189=FACE_BOUND('',#253,.T.);
#190=FACE_BOUND('',#254,.T.);
#191=FACE_BOUND('',#255,.T.);
#192=FACE_BOUND('',#256,.T.);
#193=FACE_BOUND('',#257,.T.);
#194=FACE_BOUND('',#258,.T.);
#195=FACE_BOUND('',#259,.T.);
#196=FACE_BOUND('',#260,.T.);
#197=FACE_BOUND('',#261,.T.);
#198=FACE_BOUND('',#262,.T.);
#199=FACE_BOUND('',#263,.T.);
#200=FACE_BOUND('',#264,.T.);
#201=EDGE_LOOP('',(#265));
#202=EDGE_LOOP('',(#266));
#203=EDGE_LOOP('',(#267));
#204=EDGE_LOOP('',(#268));
#205=EDGE_LOOP('',(#269));
#206=EDGE_LOOP('',(#270));
#207=EDGE_LOOP('',(#271));
#208=EDGE_LOOP('',(#272));
#209=EDGE_LOOP('',(#273));
#210=EDGE_LOOP('',(#274));
#211=EDGE_LOOP('',(#275));
#212=EDGE_LOOP('',(#276));
#213=EDGE_LOOP('',(#277));
#214=EDGE_LOOP('',(#278));
#215=EDGE_LOOP('',(#279));
#216=EDGE_LOOP('',(#280));
#217=EDGE_LOOP('',(#281));
#218=EDGE_LOOP('',(#282));
#219=EDGE_LOOP('',(#283));
#220=EDGE_LOOP('',(#284));
#221=EDGE_LOOP('',(#285));
#222=EDGE_LOOP('',(#286));
#223=EDGE_LOOP('',(#287));
#224=EDGE_LOOP('',(#288));
#225=EDGE_LOOP('',(#289));
#226=EDGE_LOOP('',(#290));
#227=EDGE_LOOP('',(#291));
#228=EDGE_LOOP('',(#292));
#229=EDGE_LOOP('',(#293));
#230=EDGE_LOOP('',(#294));
#231=EDGE_LOOP('',(#295));
#232=EDGE_LOOP('',(#296));
#233=EDGE_LOOP('',(#297));
#234=EDGE_LOOP('',(#298));
#235=EDGE_LOOP('',(#299));
#236=EDGE_LOOP('',(#300));
#237=EDGE_LOOP('',(#301));
#238=EDGE_LOOP('',(#302));
#239=EDGE_LOOP('',(#303));
#240=EDGE_LOOP('',(#304));
#241=EDGE_LOOP('',(#305));
#242=EDGE_LOOP('',(#306));
#243=EDGE_LOOP('',(#307));
#244=EDGE_LOOP('',(#308));
#245=EDGE_LOOP('',(#309));
#246=EDGE_LOOP('',(#310));
#247=EDGE_LOOP('',(#311));
#248=EDGE_LOOP('',(#312));
#249=EDGE_LOOP('',(#313));
#250=EDGE_LOOP('',(#314));
#251=EDGE_LOOP('',(#315));
#252=EDGE_LOOP('',(#316));
#253=EDGE_LOOP('',(#317));
#254=EDGE_LOOP('',(#318));
#255=EDGE_LOOP('',(#319));
#256=EDGE_LOOP('',(#320));
#257=EDGE_LOOP('',(#321));
#258=EDGE_LOOP('',(#322));
#259=EDGE_LOOP('',(#323));
#260=EDGE_LOOP('',(#324));
#261=EDGE_LOOP('',(#325));
#262=EDGE_LOOP('',(#326));
#263=EDGE_LOOP('',(#327));
#264=EDGE_LOOP('',(#328));
#265=ORIENTED_EDGE('',*,*,#361,.T.);
#266=ORIENTED_EDGE('',*,*,#362,.T.);
#267=ORIENTED_EDGE('',*,*,#363,.T.);
#268=ORIENTED_EDGE('',*,*,#361,.F.);
#269=ORIENTED_EDGE('',*,*,#364,.T.);
#270=ORIENTED_EDGE('',*,*,#363,.F.);
#271=ORIENTED_EDGE('',*,*,#365,.T.);
#272=ORIENTED_EDGE('',*,*,#364,.F.);
#273=ORIENTED_EDGE('',*,*,#366,.T.);
#274=ORIENTED_EDGE('',*,*,#365,.F.);
#275=ORIENTED_EDGE('',*,*,#367,.T.);
#276=ORIENTED_EDGE('',*,*,#366,.F.);
#277=ORIENTED_EDGE('',*,*,#368,.T.);
#278=ORIENTED_EDGE('',*,*,#367,.F.);
#279=ORIENTED_EDGE('',*,*,#369,.T.);
#280=ORIENTED_EDGE('',*,*,#368,.F.);
#281=ORIENTED_EDGE('',*,*,#370,.T.);
#282=ORIENTED_EDGE('',*,*,#369,.F.);
#283=ORIENTED_EDGE('',*,*,#371,.T.);
#284=ORIENTED_EDGE('',*,*,#370,.F.);
#285=ORIENTED_EDGE('',*,*,#372,.T.);
#286=ORIENTED_EDGE('',*,*,#371,.F.);
#287=ORIENTED_EDGE('',*,*,#373,.T.);
#288=ORIENTED_EDGE('',*,*,#372,.F.);
#289=ORIENTED_EDGE('',*,*,#362,.F.);
#290=ORIENTED_EDGE('',*,*,#374,.T.);
#291=ORIENTED_EDGE('',*,*,#373,.F.);
#292=ORIENTED_EDGE('',*,*,#375,.T.);
#293=ORIENTED_EDGE('',*,*,#374,.F.);
#294=ORIENTED_EDGE('',*,*,#376,.T.);
#295=ORIENTED_EDGE('',*,*,#375,.F.);
#296=ORIENTED_EDGE('',*,*,#377,.T.);
#297=ORIENTED_EDGE('',*,*,#376,.F.);
#298=ORIENTED_EDGE('',*,*,#378,.T.);
#299=ORIENTED_EDGE('',*,*,#377,.F.);
#300=ORIENTED_EDGE('',*,*,#379,.T.);
#301=ORIENTED_EDGE('',*,*,#378,.F.);
#302=ORIENTED_EDGE('',*,*,#380,.T.);
#303=ORIENTED_EDGE('',*,*,#379,.F.);
#304=ORIENTED_EDGE('',*,*,#380,.F.);
#305=ORIENTED_EDGE('',*,*,#381,.F.);
#306=ORIENTED_EDGE('',*,*,#382,.T.);
#307=ORIENTED_EDGE('',*,*,#383,.F.);
#308=ORIENTED_EDGE('',*,*,#384,.F.);
#309=ORIENTED_EDGE('',*,*,#385,.T.);
#310=ORIENTED_EDGE('',*,*,#386,.F.);
#311=ORIENTED_EDGE('',*,*,#387,.F.);
#312=ORIENTED_EDGE('',*,*,#383,.T.);
#313=ORIENTED_EDGE('',*,*,#388,.F.);
#314=ORIENTED_EDGE('',*,*,#387,.T.);
#315=ORIENTED_EDGE('',*,*,#385,.F.);
#316=ORIENTED_EDGE('',*,*,#388,.T.);
#317=ORIENTED_EDGE('',*,*,#381,.T.);
#318=ORIENTED_EDGE('',*,*,#389,.T.);
#319=ORIENTED_EDGE('',*,*,#382,.F.);
#320=ORIENTED_EDGE('',*,*,#386,.T.);
#321=ORIENTED_EDGE('',*,*,#390,.F.);
#322=ORIENTED_EDGE('',*,*,#389,.F.);
#323=ORIENTED_EDGE('',*,*,#390,.T.);
#324=ORIENTED_EDGE('',*,*,#391,.F.);
#325=ORIENTED_EDGE('',*,*,#392,.T.);
#326=ORIENTED_EDGE('',*,*,#384,.T.);
#327=ORIENTED_EDGE('',*,*,#392,.F.);
#328=ORIENTED_EDGE('',*,*,#391,.T.);
#329=VERTEX_POINT('',#629);
#330=VERTEX_POINT('',#631);
#331=VERTEX_POINT('',#634);
#332=VERTEX_POINT('',#637);
#333=VERTEX_POINT('',#640);
#334=VERTEX_POINT('',#643);
#335=VERTEX_POINT('',#646);
#336=VERTEX_POINT('',#649);
#337=VERTEX_POINT('',#652);
#338=VERTEX_POINT('',#655);
#339=VERTEX_POINT('',#658);
#340=VERTEX_POINT('',#661);
#341=VERTEX_POINT('',#664);
#342=VERTEX_POINT('',#668);
#343=VERTEX_POINT('',#671);
#344=VERTEX_POINT('',#674);
#345=VERTEX_POINT('',#677);
#346=VERTEX_POINT('',#680);
#347=VERTEX_POINT('',#683);
#348=VERTEX_POINT('',#686);
#349=VERTEX_POINT('',#690);
#350=VERTEX_POINT('',#693);
#351=VERTEX_POINT('',#696);
#352=VERTEX_POINT('',#698);
#353=VERTEX_POINT('',#702);
#354=VERTEX_POINT('',#704);
#355=VERTEX_POINT('',#708);
#356=VERTEX_POINT('',#712);
#357=VERTEX_POINT('',#718);
#358=VERTEX_POINT('',#724);
#359=VERTEX_POINT('',#728);
#360=VERTEX_POINT('',#732);
#361=EDGE_CURVE('',#329,#329,#393,.T.);
#362=EDGE_CURVE('',#330,#330,#394,.T.);
#363=EDGE_CURVE('',#331,#331,#395,.T.);
#364=EDGE_CURVE('',#332,#332,#396,.T.);
#365=EDGE_CURVE('',#333,#333,#397,.T.);
#366=EDGE_CURVE('',#334,#334,#398,.T.);
#367=EDGE_CURVE('',#335,#335,#399,.T.);
#368=EDGE_CURVE('',#336,#336,#400,.T.);
#369=EDGE_CURVE('',#337,#337,#401,.T.);
#370=EDGE_CURVE('',#338,#338,#402,.T.);
#371=EDGE_CURVE('',#339,#339,#403,.T.);
#372=EDGE_CURVE('',#340,#340,#404,.T.);
#373=EDGE_CURVE('',#341,#341,#405,.T.);
#374=EDGE_CURVE('',#342,#342,#406,.T.);
#375=EDGE_CURVE('',#343,#343,#407,.T.);
#376=EDGE_CURVE('',#344,#344,#408,.T.);
#377=EDGE_CURVE('',#345,#345,#409,.T.);
#378=EDGE_CURVE('',#346,#346,#410,.T.);
#379=EDGE_CURVE('',#347,#347,#411,.T.);
#380=EDGE_CURVE('',#348,#348,#412,.T.);
#381=EDGE_CURVE('',#349,#349,#413,.T.);
#382=EDGE_CURVE('',#350,#350,#414,.T.);
#383=EDGE_CURVE('',#351,#351,#415,.T.);
#384=EDGE_CURVE('',#352,#352,#416,.T.);
#385=EDGE_CURVE('',#353,#353,#417,.T.);
#386=EDGE_CURVE('',#354,#354,#418,.T.);
#387=EDGE_CURVE('',#355,#355,#419,.T.);
#388=EDGE_CURVE('',#356,#356,#421,.T.);
#389=EDGE_CURVE('',#357,#357,#423,.T.);
#390=EDGE_CURVE('',#358,#358,#424,.T.);
#391=EDGE_CURVE('',#359,#359,#426,.T.);
#392=EDGE_CURVE('',#360,#360,#427,.T.);
#393=CIRCLE('',#430,12.2500000000005);
#394=CIRCLE('',#431,11.2500000000005);
#395=CIRCLE('',#433,12.25);
#396=CIRCLE('',#435,12.3103073792141);
#397=CIRCLE('',#437,12.5);
#398=CIRCLE('',#439,12.5);
#399=CIRCLE('',#441,12.2636296694844);
#400=CIRCLE('',#443,12.25);
#401=CIRCLE('',#445,12.25);
#402=CIRCLE('',#447,12.705669240384);
#403=CIRCLE('',#449,13.5);
#404=CIRCLE('',#451,16.3);
#405=CIRCLE('',#453,17.);
#406=CIRCLE('',#456,17.);
#407=CIRCLE('',#458,16.4);
#408=CIRCLE('',#460,9.);
#409=CIRCLE('',#462,8.);
#410=CIRCLE('',#464,8.);
#411=CIRCLE('',#466,7.81645035023016);
#412=CIRCLE('',#468,6.81782081547559);
#413=CIRCLE('',#471,0.100000024499994);
#414=CIRCLE('',#473,0.389665018642619);
#415=CIRCLE('',#475,8.12877638664333);
#416=CIRCLE('',#476,4.92745174339983);
#417=CIRCLE('',#477,7.75316880935557);
#418=CIRCLE('',#478,3.72076953536078);
#419=CIRCLE('',#479,8.49893120867366);
#420=CIRCLE('',#480,0.4);
#421=CIRCLE('',#481,8.17888342452056);
#422=CIRCLE('',#482,0.399999999999999);
#423=CIRCLE('',#483,3.37840244854104);
#424=CIRCLE('',#484,3.56860936941775);
#425=CIRCLE('',#485,0.399999999999999);
#426=CIRCLE('',#486,3.72076953531345);
#427=CIRCLE('',#487,4.58981412923634);
#428=CIRCLE('',#488,0.4);
#429=AXIS2_PLACEMENT_3D('',#627,#489,#490);
#430=AXIS2_PLACEMENT_3D('',#628,#491,#492);
#431=AXIS2_PLACEMENT_3D('',#630,#493,#494);
#432=AXIS2_PLACEMENT_3D('',#632,#495,#496);
#433=AXIS2_PLACEMENT_3D('',#633,#497,#498);
#434=AXIS2_PLACEMENT_3D('',#635,#499,#500);
#435=AXIS2_PLACEMENT_3D('',#636,#501,#502);
#436=AXIS2_PLACEMENT_3D('',#638,#503,#504);
#437=AXIS2_PLACEMENT_3D('',#639,#505,#506);
#438=AXIS2_PLACEMENT_3D('',#641,#507,#508);
#439=AXIS2_PLACEMENT_3D('',#642,#509,#510);
#440=AXIS2_PLACEMENT_3D('',#644,#511,#512);
#441=AXIS2_PLACEMENT_3D('',#645,#513,#514);
#442=AXIS2_PLACEMENT_3D('',#647,#515,#516);
#443=AXIS2_PLACEMENT_3D('',#648,#517,#518);
#444=AXIS2_PLACEMENT_3D('',#650,#519,#520);
#445=AXIS2_PLACEMENT_3D('',#651,#521,#522);
#446=AXIS2_PLACEMENT_3D('',#653,#523,#524);
#447=AXIS2_PLACEMENT_3D('',#654,#525,#526);
#448=AXIS2_PLACEMENT_3D('',#656,#527,#528);
#449=AXIS2_PLACEMENT_3D('',#657,#529,#530);
#450=AXIS2_PLACEMENT_3D('',#659,#531,#532);
#451=AXIS2_PLACEMENT_3D('',#660,#533,#534);
#452=AXIS2_PLACEMENT_3D('',#662,#535,#536);
#453=AXIS2_PLACEMENT_3D('',#663,#537,#538);
#454=AXIS2_PLACEMENT_3D('',#665,#539,#540);
#455=AXIS2_PLACEMENT_3D('',#666,#541,#542);
#456=AXIS2_PLACEMENT_3D('',#667,#543,#544);
#457=AXIS2_PLACEMENT_3D('',#669,#545,#546);
#458=AXIS2_PLACEMENT_3D('',#670,#547,#548);
#459=AXIS2_PLACEMENT_3D('',#672,#549,#550);
#460=AXIS2_PLACEMENT_3D('',#673,#551,#552);
#461=AXIS2_PLACEMENT_3D('',#675,#553,#554);
#462=AXIS2_PLACEMENT_3D('',#676,#555,#556);
#463=AXIS2_PLACEMENT_3D('',#678,#557,#558);
#464=AXIS2_PLACEMENT_3D('',#679,#559,#560);
#465=AXIS2_PLACEMENT_3D('',#681,#561,#562);
#466=AXIS2_PLACEMENT_3D('',#682,#563,#564);
#467=AXIS2_PLACEMENT_3D('',#684,#565,#566);
#468=AXIS2_PLACEMENT_3D('',#685,#567,#568);
#469=AXIS2_PLACEMENT_3D('',#687,#569,#570);
#470=AXIS2_PLACEMENT_3D('',#688,#571,#572);
#471=AXIS2_PLACEMENT_3D('',#689,#573,#574);
#472=AXIS2_PLACEMENT_3D('',#691,#575,#576);
#473=AXIS2_PLACEMENT_3D('',#692,#577,#578);
#474=AXIS2_PLACEMENT_3D('',#694,#579,#580);
#475=AXIS2_PLACEMENT_3D('',#695,#581,#582);
#476=AXIS2_PLACEMENT_3D('',#697,#583,#584);
#477=AXIS2_PLACEMENT_3D('',#701,#587,#588);
#478=AXIS2_PLACEMENT_3D('',#703,#589,#590);
#479=AXIS2_PLACEMENT_3D('',#707,#593,#594);
#480=AXIS2_PLACEMENT_3D('',#709,#595,#596);
#481=AXIS2_PLACEMENT_3D('',#711,#598,#599);
#482=AXIS2_PLACEMENT_3D('',#715,#602,#603);
#483=AXIS2_PLACEMENT_3D('',#717,#605,#606);
#484=AXIS2_PLACEMENT_3D('',#723,#611,#612);
#485=AXIS2_PLACEMENT_3D('',#725,#613,#614);
#486=AXIS2_PLACEMENT_3D('',#727,#616,#617);
#487=AXIS2_PLACEMENT_3D('',#731,#620,#621);
#488=AXIS2_PLACEMENT_3D('',#733,#622,#623);
#489=DIRECTION('',(0.,0.,1.));
#490=DIRECTION('',(1.,0.,0.));
#491=DIRECTION('',(1.,0.,0.));
#492=DIRECTION('',(0.,0.,1.));
#493=DIRECTION('',(-1.,0.,0.));
#494=DIRECTION('',(0.,0.,1.));
#495=DIRECTION('',(-1.,0.,0.));
#496=DIRECTION('',(0.,0.,1.));
#497=DIRECTION('',(1.,0.,0.));
#498=DIRECTION('',(0.,0.,1.));
#499=DIRECTION('',(-1.,0.,0.));
#500=DIRECTION('',(0.,0.,1.));
#501=DIRECTION('',(1.,0.,0.));
#502=DIRECTION('',(0.,0.,1.));
#503=DIRECTION('',(-1.,0.,0.));
#504=DIRECTION('',(0.,0.,1.));
#505=DIRECTION('',(1.,0.,0.));
#506=DIRECTION('',(0.,0.,1.));
#507=DIRECTION('',(-1.,0.,0.));
#508=DIRECTION('',(7.37629841135502E-17,0.,1.));
#509=DIRECTION('',(1.,0.,0.));
#510=DIRECTION('',(0.,0.,1.));
#511=DIRECTION('',(-1.,0.,0.));
#512=DIRECTION('',(0.,0.,1.));
#513=DIRECTION('',(1.,0.,0.));
#514=DIRECTION('',(0.,0.,1.));
#515=DIRECTION('',(1.,0.,0.));
#516=DIRECTION('',(1.97936570079055E-16,0.,-1.));
#517=DIRECTION('',(1.,0.,0.));
#518=DIRECTION('',(0.,0.,1.));
#519=DIRECTION('',(-1.,0.,0.));
#520=DIRECTION('',(0.,0.,1.));
#521=DIRECTION('',(1.,0.,0.));
#522=DIRECTION('',(0.,0.,1.));
#523=DIRECTION('',(-1.,0.,0.));
#524=DIRECTION('',(0.,0.,1.));
#525=DIRECTION('',(1.,0.,0.));
#526=DIRECTION('',(0.,0.,1.));
#527=DIRECTION('',(-1.,0.,0.));
#528=DIRECTION('',(0.,0.,1.));
#529=DIRECTION('',(1.,0.,0.));
#530=DIRECTION('',(0.,0.,1.));
#531=DIRECTION('',(1.,0.,0.));
#532=DIRECTION('',(1.94691933591483E-18,0.,-1.));
#533=DIRECTION('',(1.,0.,0.));
#534=DIRECTION('',(0.,0.,1.));
#535=DIRECTION('',(-1.,0.,0.));
#536=DIRECTION('',(0.,0.,1.));
#537=DIRECTION('',(1.,0.,0.));
#538=DIRECTION('',(0.,0.,1.));
#539=DIRECTION('',(-1.,0.,0.));
#540=DIRECTION('',(0.,0.,1.));
#541=DIRECTION('',(-1.,0.,0.));
#542=DIRECTION('',(0.,0.,1.));
#543=DIRECTION('',(1.,0.,0.));
#544=DIRECTION('',(0.,0.,1.));
#545=DIRECTION('',(-1.,0.,0.));
#546=DIRECTION('',(0.,0.,1.));
#547=DIRECTION('',(1.,0.,0.));
#548=DIRECTION('',(0.,0.,1.));
#549=DIRECTION('',(-1.,0.,0.));
#550=DIRECTION('',(0.,0.,1.));
#551=DIRECTION('',(1.,0.,0.));
#552=DIRECTION('',(0.,0.,1.));
#553=DIRECTION('',(1.,0.,0.));
#554=DIRECTION('',(0.,0.,-1.));
#555=DIRECTION('',(1.,0.,0.));
#556=DIRECTION('',(0.,0.,1.));
#557=DIRECTION('',(-1.,0.,0.));
#558=DIRECTION('',(0.,0.,1.));
#559=DIRECTION('',(1.,0.,0.));
#560=DIRECTION('',(0.,0.,1.));
#561=DIRECTION('',(-1.,0.,0.));
#562=DIRECTION('',(0.,0.,1.));
#563=DIRECTION('',(1.,0.,0.));
#564=DIRECTION('',(0.,0.,1.));
#565=DIRECTION('',(1.,0.,0.));
#566=DIRECTION('',(-1.83788087859212E-15,0.,-1.));
#567=DIRECTION('',(1.,0.,0.));
#568=DIRECTION('',(0.,0.,1.));
#569=DIRECTION('',(-1.,0.,0.));
#570=DIRECTION('',(0.,0.,1.));
#571=DIRECTION('',(1.,0.,0.));
#572=DIRECTION('',(0.,0.,-1.));
#573=DIRECTION('',(1.,0.,0.));
#574=DIRECTION('',(0.,0.,-1.));
#575=DIRECTION('',(1.,0.,0.));
#576=DIRECTION('',(0.,0.,-1.));
#577=DIRECTION('',(1.,0.,0.));
#578=DIRECTION('',(0.,0.,-1.));
#579=DIRECTION('',(1.,0.,0.));
#580=DIRECTION('',(0.,0.,-1.));
#581=DIRECTION('',(1.,0.,0.));
#582=DIRECTION('',(0.,0.,-1.));
#583=DIRECTION('',(-1.,0.,0.));
#584=DIRECTION('',(0.,0.,-1.));
#585=DIRECTION('',(0.0697564737441258,-0.997564050259824,5.42101086242751E-16));
#586=DIRECTION('',(1.,0.,0.));
#587=DIRECTION('',(1.,0.,0.));
#588=DIRECTION('',(0.,0.,-1.));
#589=DIRECTION('',(1.,0.,0.));
#590=DIRECTION('',(0.,0.,-1.));
#591=DIRECTION('',(-0.069756473744125,0.997564050259824,-4.94961861352077E-16));
#592=DIRECTION('',(1.,0.,0.));
#593=DIRECTION('',(1.,0.,0.));
#594=DIRECTION('',(0.,0.,-1.));
#595=DIRECTION('',(0.,0.,1.));
#596=DIRECTION('',(0.997564050259824,0.0697564737441251,0.));
#597=DIRECTION('',(1.,0.,0.));
#598=DIRECTION('',(1.,0.,0.));
#599=DIRECTION('',(0.,0.,-1.));
#600=DIRECTION('',(0.997564050259824,0.0697564737441255,-9.19214885368144E-16));
#601=DIRECTION('',(1.,0.,0.));
#602=DIRECTION('',(0.,0.,1.));
#603=DIRECTION('',(0.997564050259824,0.0697564737441251,0.));
#604=DIRECTION('',(1.,0.,0.));
#605=DIRECTION('',(-1.,0.,0.));
#606=DIRECTION('',(0.,0.,-1.));
#607=DIRECTION('',(-0.069756473744125,0.996196923398857,0.0522084684839321));
#608=DIRECTION('',(1.,0.,0.));
#609=DIRECTION('',(0.0697564737441243,-0.996196923398857,-0.0522084684839321));
#610=DIRECTION('',(1.,0.,0.));
#611=DIRECTION('',(1.,0.,0.));
#612=DIRECTION('',(0.,0.,-1.));
#613=DIRECTION('',(0.,0.,1.));
#614=DIRECTION('',(0.997564050259824,0.0697564737441251,0.));
#615=DIRECTION('',(1.,0.,0.));
#616=DIRECTION('',(1.,0.,0.));
#617=DIRECTION('',(0.,0.,-1.));
#618=DIRECTION('',(0.0697564737441258,-0.997564050259824,5.42101086242751E-16));
#619=DIRECTION('',(1.,0.,0.));
#620=DIRECTION('',(1.,0.,0.));
#621=DIRECTION('',(0.,0.,-1.));
#622=DIRECTION('',(4.16333634234434E-17,0.0523359562429439,-0.998629534754574));
#623=DIRECTION('',(0.997564050259825,0.0696608749212152,0.00365077175753464));
#624=DIRECTION('',(1.,0.,0.));
#625=DIRECTION('',(-0.069756473744125,0.996196923398857,0.0522084684839321));
#626=DIRECTION('',(1.,0.,0.));
#627=CARTESIAN_POINT('',(0.,0.,0.));
#628=CARTESIAN_POINT('',(145.,0.,0.));
#629=CARTESIAN_POINT('',(145.,0.,12.2500000000005));
#630=CARTESIAN_POINT('',(146.,0.,0.));
#631=CARTESIAN_POINT('',(146.,0.,11.2500000000005));
#632=CARTESIAN_POINT('',(145.,0.,0.));
#633=CARTESIAN_POINT('',(143.176326980708,0.,0.));
#634=CARTESIAN_POINT('',(143.176326980708,0.,12.25));
#635=CARTESIAN_POINT('',(0.,0.,0.));
#636=CARTESIAN_POINT('',(142.834306837383,0.,0.));
#637=CARTESIAN_POINT('',(142.834306837383,0.,12.3103073792141));
#638=CARTESIAN_POINT('',(143.176326980708,0.,0.));
#639=CARTESIAN_POINT('',(142.313130645136,0.,0.));
#640=CARTESIAN_POINT('',(142.313130645136,0.,12.5));
#641=CARTESIAN_POINT('',(142.834306837383,0.,0.));
#642=CARTESIAN_POINT('',(92.,0.,0.));
#643=CARTESIAN_POINT('',(92.,0.,12.5));
#644=CARTESIAN_POINT('',(0.,0.,0.));
#645=CARTESIAN_POINT('',(91.1178539171139,0.,0.));
#646=CARTESIAN_POINT('',(91.1178539171139,0.,12.2636296694844));
#647=CARTESIAN_POINT('',(92.,0.,0.));
#648=CARTESIAN_POINT('',(91.0143262990729,0.,0.));
#649=CARTESIAN_POINT('',(91.0143262990729,0.,12.25));
#650=CARTESIAN_POINT('',(91.0143262990729,0.,0.));
#651=CARTESIAN_POINT('',(90.2844713195104,0.,0.));
#652=CARTESIAN_POINT('',(90.2844713195104,0.,12.25));
#653=CARTESIAN_POINT('',(0.,0.,0.));
#654=CARTESIAN_POINT('',(89.8883640920138,0.,0.));
#655=CARTESIAN_POINT('',(89.8883640920138,0.,12.705669240384));
#656=CARTESIAN_POINT('',(90.2844713195104,0.,0.));
#657=CARTESIAN_POINT('',(90.,0.,0.));
#658=CARTESIAN_POINT('',(90.,0.,13.5));
#659=CARTESIAN_POINT('',(89.8883640920138,0.,0.));
#660=CARTESIAN_POINT('',(90.,0.,0.));
#661=CARTESIAN_POINT('',(90.,0.,16.3));
#662=CARTESIAN_POINT('',(90.,13.5,0.));
#663=CARTESIAN_POINT('',(89.5872983346208,0.,0.));
#664=CARTESIAN_POINT('',(89.5872983346208,0.,17.));
#665=CARTESIAN_POINT('',(89.2,0.,0.));
#666=CARTESIAN_POINT('',(146.,17.5,0.));
#667=CARTESIAN_POINT('',(86.,0.,0.));
#668=CARTESIAN_POINT('',(86.,0.,17.));
#669=CARTESIAN_POINT('',(0.,0.,0.));
#670=CARTESIAN_POINT('',(84.2,0.,0.));
#671=CARTESIAN_POINT('',(84.2,0.,16.4));
#672=CARTESIAN_POINT('',(86.,0.,0.));
#673=CARTESIAN_POINT('',(74.3333333333333,0.,0.));
#674=CARTESIAN_POINT('',(74.3333333333333,0.,9.));
#675=CARTESIAN_POINT('',(84.2,0.,0.));
#676=CARTESIAN_POINT('',(71.3333333333333,0.,0.));
#677=CARTESIAN_POINT('',(71.3333333333333,0.,8.));
#678=CARTESIAN_POINT('',(71.3333333333333,0.,0.));
#679=CARTESIAN_POINT('',(5.,0.,0.));
#680=CARTESIAN_POINT('',(5.,0.,8.));
#681=CARTESIAN_POINT('',(0.,0.,0.));
#682=CARTESIAN_POINT('',(1.49766404375706,0.,0.));
#683=CARTESIAN_POINT('',(1.49766404375706,0.,7.81645035023016));
#684=CARTESIAN_POINT('',(5.,0.,0.));
#685=CARTESIAN_POINT('',(0.550000000000002,0.,0.));
#686=CARTESIAN_POINT('',(0.550000000000002,0.,6.81782081547559));
#687=CARTESIAN_POINT('',(1.55,0.,0.));
#688=CARTESIAN_POINT('',(0.550000000000001,6.81782081547559,0.));
#689=CARTESIAN_POINT('',(0.321854159119047,0.,0.));
#690=CARTESIAN_POINT('',(0.321854159119047,0.,-0.100000024499994));
#691=CARTESIAN_POINT('',(0.321854159119047,0.,0.));
#692=CARTESIAN_POINT('',(5.7087000305221,0.,0.));
#693=CARTESIAN_POINT('',(5.7087000305221,0.,-0.389665018642619));
#694=CARTESIAN_POINT('',(5.7087000305221,0.,0.));
#695=CARTESIAN_POINT('',(0.371854159119054,0.,0.));
#696=CARTESIAN_POINT('',(0.371854159119054,0.,-8.12877638664333));
#697=CARTESIAN_POINT('',(0.146982307076638,0.,0.));
#698=CARTESIAN_POINT('',(0.146982307076638,0.,-4.92745174339983));
#699=CARTESIAN_POINT('',(0.146982307076647,-4.89078528291051,0.600000000000001));
#700=CARTESIAN_POINT('',(5.,0.,0.));
#701=CARTESIAN_POINT('',(5.75870003052211,0.,0.));
#702=CARTESIAN_POINT('',(5.75870003052211,0.,-7.75316880935557));
#703=CARTESIAN_POINT('',(5.47494794748312,0.,0.));
#704=CARTESIAN_POINT('',(5.47494794748312,0.,-3.72076953536078));
#705=CARTESIAN_POINT('',(5.75870003052211,-7.7299176312794,0.599999999999997));
#706=CARTESIAN_POINT('',(5.,0.,0.));
#707=CARTESIAN_POINT('',(0.798782368720635,0.,0.));
#708=CARTESIAN_POINT('',(0.798782368720635,0.,-8.49893120867366));
#709=CARTESIAN_POINT('',(0.770879779222986,-8.07870000000003,0.599999999999999));
#710=CARTESIAN_POINT('',(5.,0.,0.));
#711=CARTESIAN_POINT('',(5.38757699991583,0.,0.));
#712=CARTESIAN_POINT('',(5.38757699991583,0.,-8.17888342452056));
#713=CARTESIAN_POINT('',(0.798782368720634,-8.47772562010394,0.600000000000002));
#714=CARTESIAN_POINT('',(5.,0.,0.));
#715=CARTESIAN_POINT('',(5.35967441041819,-7.75782022077705,0.599999999999999));
#716=CARTESIAN_POINT('',(5.,0.,0.));
#717=CARTESIAN_POINT('',(0.0857118651761846,0.,0.));
#718=CARTESIAN_POINT('',(0.0857118651761846,0.,-3.37840244854104));
#719=CARTESIAN_POINT('',(0.321854159119047,-0.00530349969172263,0.0998592899585179));
#720=CARTESIAN_POINT('',(5.,0.,0.));
#721=CARTESIAN_POINT('',(5.47494794748312,3.70909454558616,0.294522642884801));
#722=CARTESIAN_POINT('',(5.,0.,0.));
#723=CARTESIAN_POINT('',(0.0509743798960752,0.,0.));
#724=CARTESIAN_POINT('',(0.0509743798960752,0.,-3.56860936941775));
#725=CARTESIAN_POINT('',(0.450000000000005,-3.48990536880481,0.599999999999999));
#726=CARTESIAN_POINT('',(5.,0.,0.));
#727=CARTESIAN_POINT('',(0.0617616978480957,0.,0.));
#728=CARTESIAN_POINT('',(0.0617616978480957,0.,-3.72076953531345));
#729=CARTESIAN_POINT('',(0.050974379896075,-3.51780795830246,0.6));
#730=CARTESIAN_POINT('',(5.,0.,0.));
#731=CARTESIAN_POINT('',(0.000974379896072006,0.,0.));
#732=CARTESIAN_POINT('',(0.000974379896072006,0.,-4.58981412923634));
#733=CARTESIAN_POINT('',(0.400000000000005,4.60506669791152,0.34147855368762));
#734=CARTESIAN_POINT('',(5.,0.,0.));
#735=CARTESIAN_POINT('',(0.0617616978480958,3.70909454553888,0.294522642882323));
#736=CARTESIAN_POINT('',(5.,0.,0.));
#737=(
GEOMETRIC_REPRESENTATION_CONTEXT(3)
GLOBAL_UNCERTAINTY_ASSIGNED_CONTEXT((#738))
GLOBAL_UNIT_ASSIGNED_CONTEXT((#744,#740,#739))
REPRESENTATION_CONTEXT('ATUM-17XD4-SO-050204-light',
'TOP_LEVEL_ASSEMBLY_PART')
);
#738=UNCERTAINTY_MEASURE_WITH_UNIT(LENGTH_MEASURE(2.E-5),#744,
'DISTANCE_ACCURACY_VALUE','Maximum Tolerance applied to model');
#739=(
NAMED_UNIT(*)
SI_UNIT($,.STERADIAN.)
SOLID_ANGLE_UNIT()
);
#740=(
CONVERSION_BASED_UNIT('DEGREE',#742)
NAMED_UNIT(#741)
PLANE_ANGLE_UNIT()
);
#741=DIMENSIONAL_EXPONENTS(0.,0.,0.,0.,0.,0.,0.);
#742=PLANE_ANGLE_MEASURE_WITH_UNIT(PLANE_ANGLE_MEASURE(0.0174532925),#743);
#743=(
NAMED_UNIT(*)
PLANE_ANGLE_UNIT()
SI_UNIT($,.RADIAN.)
);
#744=(
LENGTH_UNIT()
NAMED_UNIT(*)
SI_UNIT(.MILLI.,.METRE.)
);
ENDSEC;
END-ISO-10303-21;
